ISO-10303-21;
HEADER;
FILE_DESCRIPTION (( 'STEP AP214' ),
    '1' );
FILE_NAME ('5405068.stp',
    '2016-07-29T11:34:53',
    ( '' ),
    ( '' ),
    'SwSTEP 2.0',
    'SolidWorks 2014',
    '' );
FILE_SCHEMA (( 'AUTOMOTIVE_DESIGN' ));
ENDSEC;

DATA;
#1 = EDGE_LOOP ( 'NONE', ( #336, #103, #42 ) ) ;
#2 = CARTESIAN_POINT ( 'NONE',  ( 0.0000000000000000000, 26.99999999999997500, 0.0000000000000000000 ) ) ;
#3 = CARTESIAN_POINT ( 'NONE',  ( -3.635685394863092900, 4.672478312827468700, 7.132109291340225500 ) ) ;
#4 = ADVANCED_FACE ( 'NONE', ( #320 ), #195, .T. ) ;
#5 = B_SPLINE_CURVE_WITH_KNOTS ( 'NONE', 3,
 ( #222, #221, #258, #257, #255, #253, #251, #249, #247, #245, #244, #240, #239, #242, #238, #241, #236, #235, #234, #232, #231, #230 ),
 .UNSPECIFIED., .F., .F.,
 ( 4, 2, 2, 2, 2, 2, 2, 2, 2, 2, 4 ),
 ( 0.009097929882758853300, 0.01018684095071959600, 0.01127575201868033900, 0.01236466308664108100, 0.01345357415460182400, 0.01454248522256256600, 0.01563139629052330900, 0.01617585182450368200, 0.01672030735848405200, 0.01726476289246442500, 0.01780921842644479800 ),
 .UNSPECIFIED. ) ;
#6 = CARTESIAN_POINT ( 'NONE',  ( 0.0000000000000000000, 35.00000000000000000, 0.0000000000000000000 ) ) ;
#7 = ORIENTED_EDGE ( 'NONE', *, *, #33, .F. ) ;
#8 = ORIENTED_EDGE ( 'NONE', *, *, #337, .T. ) ;
#9 = AXIS2_PLACEMENT_3D ( 'NONE', #215, #216, #217 ) ;
#10 = CARTESIAN_POINT ( 'NONE',  ( 0.0000000000000000000, 26.99999999999997500, -8.000000000000000000 ) ) ;
#11 =( GEOMETRIC_REPRESENTATION_CONTEXT ( 3 ) GLOBAL_UNCERTAINTY_ASSIGNED_CONTEXT ( ( #306 ) ) GLOBAL_UNIT_ASSIGNED_CONTEXT ( ( #290, #289, #285 ) ) REPRESENTATION_CONTEXT ( 'NONE', 'WORKASPACE' ) );
#12 = DIRECTION ( 'NONE',  ( 0.0000000000000000000, 0.0000000000000000000, -1.000000000000000000 ) ) ;
#13 = AXIS2_PLACEMENT_3D ( 'NONE', #208, #206, #207 ) ;
#14 = CARTESIAN_POINT ( 'NONE',  ( 0.0000000000000000000, 8.500000000000000000, 10.00000000000000000 ) ) ;
#15 = DIRECTION ( 'NONE',  ( 0.0000000000000000000, 0.0000000000000000000, -1.000000000000000000 ) ) ;
#16 = AXIS2_PLACEMENT_3D ( 'NONE', #200, #201, #203 ) ;
#17 = ADVANCED_FACE ( 'NONE', ( #223 ), #248, .T. ) ;
#18 = AXIS2_PLACEMENT_3D ( 'NONE', #14, #185, #119 ) ;
#19 = AXIS2_PLACEMENT_3D ( 'NONE', #158, #160, #164 ) ;
#20 = ORIENTED_EDGE ( 'NONE', *, *, #220, .F. ) ;
#21 = CONICAL_SURFACE ( 'NONE', #149, 4.500000000000000000, 0.2617993877991500700 ) ;
#22 = AXIS2_PLACEMENT_3D ( 'NONE', #6, #31, #15 ) ;
#23 = DIRECTION ( 'NONE',  ( -0.0000000000000000000, -1.000000000000000000, -0.0000000000000000000 ) ) ;
#24 = AXIS2_PLACEMENT_3D ( 'NONE', #29, #46, #48 ) ;
#25 = CARTESIAN_POINT ( 'NONE',  ( 9.797127643282784200E-016, 3.464101615137754800, 8.000000000000000000 ) ) ;
#26 = VERTEX_POINT ( 'NONE', #25 ) ;
#27 = EDGE_CURVE ( 'NONE', #286, #250, #307, .T. ) ;
#28 = CARTESIAN_POINT ( 'NONE',  ( 9.797174393178825700E-016, 35.00000000000000000, 8.000000000000000000 ) ) ;
#29 = CARTESIAN_POINT ( 'NONE',  ( 0.0000000000000000000, 0.0000000000000000000, 0.0000000000000000000 ) ) ;
#30 = UNCERTAINTY_MEASURE_WITH_UNIT (LENGTH_MEASURE( 1.000000000000000100E-005 ), #80, 'distance_accuracy_value', 'NONE');
#31 = DIRECTION ( 'NONE',  ( -0.0000000000000000000, -1.000000000000000000, -0.0000000000000000000 ) ) ;
#32 = EDGE_CURVE ( 'NONE', #61, #198, #192, .T. ) ;
#33 = EDGE_CURVE ( 'NONE', #181, #61, #86, .T. ) ;
#34 = CARTESIAN_POINT ( 'NONE',  ( -4.382177060601129000, 5.353201082719684800, 6.697921953547601800 ) ) ;
#35 = ORIENTED_EDGE ( 'NONE', *, *, #32, .T. ) ;
#36 = ORIENTED_EDGE ( 'NONE', *, *, #170, .F. ) ;
#37 = ORIENTED_EDGE ( 'NONE', *, *, #202, .F. ) ;
#38 = CIRCLE ( 'NONE', #16, 8.000000000000000000 ) ;
#39 = DIRECTION ( 'NONE',  ( -0.0000000000000000000, -1.000000000000000000, -0.0000000000000000000 ) ) ;
#40 = VECTOR ( 'NONE', #335, 1000.000000000000000 ) ;
#41 = VECTOR ( 'NONE', #50, 1000.000000000000000 ) ;
#42 = ORIENTED_EDGE ( 'NONE', *, *, #331, .F. ) ;
#43 = DIRECTION ( 'NONE',  ( -0.0000000000000000000, -1.000000000000000000, -0.0000000000000000000 ) ) ;
#44 = VECTOR ( 'NONE', #113, 1000.000000000000000 ) ;
#45 = CARTESIAN_POINT ( 'NONE',  ( 9.797174393178843400E-016, 26.99999999999997500, 8.000000000000014200 ) ) ;
#46 = DIRECTION ( 'NONE',  ( 0.0000000000000000000, 1.000000000000000000, 0.0000000000000000000 ) ) ;
#47 = ADVANCED_FACE ( 'NONE', ( #210 ), #54, .F. ) ;
#48 = DIRECTION ( 'NONE',  ( 0.0000000000000000000, 0.0000000000000000000, 1.000000000000000000 ) ) ;
#49 = PRODUCT ( '5405068', '5405068', '', ( #268 ) ) ;
#50 = DIRECTION ( 'NONE',  ( 8.659560562354925500E-017, -0.7071067811865482400, 0.7071067811865469100 ) ) ;
#51 = B_SPLINE_CURVE_WITH_KNOTS ( 'NONE', 3,
 ( #297, #280, #298, #292, #302, #305, #316, #310, #311, #314, #318, #34, #322, #3, #114, #323, #315, #324, #326, #340, #327, #334 ),
 .UNSPECIFIED., .F., .F.,
 ( 4, 2, 2, 2, 2, 2, 2, 2, 2, 2, 4 ),
 ( 0.0003716089426454915500, 0.0009170040014025726300, 0.001462399060159656000, 0.002007794118916739500, 0.002553189177673823100, 0.003643979295187994200, 0.004734769412702165600, 0.005825559530216338000, 0.006916349647730509400, 0.008007139765244680000, 0.009097929882758853300 ),
 .UNSPECIFIED. ) ;
#52 = SURFACE_STYLE_FILL_AREA ( #73 ) ;
#53 = FACE_OUTER_BOUND ( 'NONE', #303, .T. ) ;
#54 = PLANE ( 'NONE',  #162 ) ;
#55 = CARTESIAN_POINT ( 'NONE',  ( 0.0000000000000000000, 0.0000000000000000000, 0.0000000000000000000 ) ) ;
#56 = CARTESIAN_POINT ( 'NONE',  ( -0.7267810612739427100, 13.50317623354519200, 7.975126669286065200 ) ) ;
#57 = ORIENTED_EDGE ( 'NONE', *, *, #199, .F. ) ;
#58 = ORIENTED_EDGE ( 'NONE', *, *, #270, .T. ) ;
#59 = DIRECTION ( 'NONE',  ( 0.0000000000000000000, 1.000000000000000000, 0.0000000000000000000 ) ) ;
#60 = DIRECTION ( 'NONE',  ( 0.0000000000000000000, -0.0000000000000000000, 1.000000000000000000 ) ) ;
#61 = VERTEX_POINT ( 'NONE', #66 ) ;
#62 = CONICAL_SURFACE ( 'NONE', #148, 8.000000000000014200, 0.7853981633974473900 ) ;
#63 = CARTESIAN_POINT ( 'NONE',  ( 4.500000000000000000, 8.500000000000000000, 10.00000000000000000 ) ) ;
#64 = CARTESIAN_POINT ( 'NONE',  ( -1.443574830934203600, 13.37257275429049700, 7.876988498765091300 ) ) ;
#65 = FILL_AREA_STYLE_COLOUR ( '', #84 ) ;
#66 = CARTESIAN_POINT ( 'NONE',  ( 9.797174393178825700E-016, 26.99999999999997500, 8.000000000000000000 ) ) ;
#67 = ORIENTED_EDGE ( 'NONE', *, *, #331, .T. ) ;
#68 = LINE ( 'NONE', #284, #40 ) ;
#69 = VECTOR ( 'NONE', #117, 1000.000000000000000 ) ;
#70 = PRESENTATION_STYLE_ASSIGNMENT (( #277 ) ) ;
#71 = CARTESIAN_POINT ( 'NONE',  ( 5.666269378535575100, 8.500000000000000000, 5.647423423993464200 ) ) ;
#72 = VERTEX_POINT ( 'NONE', #63 ) ;
#73 = FILL_AREA_STYLE ('',( #65 ) ) ;
#74 = SURFACE_SIDE_STYLE ('',( #52 ) ) ;
#75 = SURFACE_STYLE_USAGE ( .BOTH. , #74 ) ;
#76 = ORIENTED_EDGE ( 'NONE', *, *, #328, .T. ) ;
#77 = LINE ( 'NONE', #93, #69 ) ;
#78 = MANIFOLD_SOLID_BREP ( 'Boss-Extrude2', #330 ) ;
#79 = VERTEX_POINT ( 'NONE', #10 ) ;
#80 =( LENGTH_UNIT ( ) NAMED_UNIT ( * ) SI_UNIT ( .MILLI., .METRE. ) );
#81 =( NAMED_UNIT ( * ) PLANE_ANGLE_UNIT ( ) SI_UNIT ( $, .RADIAN. ) );
#82 =( NAMED_UNIT ( * ) SI_UNIT ( $, .STERADIAN. ) SOLID_ANGLE_UNIT ( ) );
#83 = EDGE_LOOP ( 'NONE', ( #67, #35, #163, #267, #332, #166, #37 ) ) ;
#84 = COLOUR_RGB ( '',0.7921568627450980000, 0.8196078431372548800, 0.9333333333333333500 ) ;
#85 = CIRCLE ( 'NONE', #19, 8.000000000000000000 ) ;
#86 = LINE ( 'NONE', #45, #41 ) ;
#87 = ORIENTED_EDGE ( 'NONE', *, *, #228, .T. ) ;
#88 = EDGE_LOOP ( 'NONE', ( #194, #58, #155, #8, #100 ) ) ;
#89 = DIRECTION ( 'NONE',  ( 1.000000000000000000, 0.0000000000000000000, 0.0000000000000000000 ) ) ;
#90 = DIRECTION ( 'NONE',  ( -0.2588190451025213500, -3.169619151431772300E-017, -0.9659258262890680900 ) ) ;
#91 = MECHANICAL_DESIGN_GEOMETRIC_PRESENTATION_REPRESENTATION (  '', ( #142 ), #121 ) ;
#92 = UNCERTAINTY_MEASURE_WITH_UNIT (LENGTH_MEASURE( 1.000000000000000100E-005 ), #288, 'distance_accuracy_value', 'NONE');
#93 = CARTESIAN_POINT ( 'NONE',  ( 9.797174393178825700E-016, 35.00000000000000000, 8.000000000000000000 ) ) ;
#94 = CARTESIAN_POINT ( 'NONE',  ( 0.0000000000000000000, 8.500000000000000000, 10.00000000000000000 ) ) ;
#95 = CARTESIAN_POINT ( 'NONE',  ( -0.3629297895238474100, 13.53589838486224700, 7.999999999999998200 ) ) ;
#96 = VERTEX_POINT ( 'NONE', #71 ) ;
#97 = CARTESIAN_POINT ( 'NONE',  ( 9.796880549138748300E-016, 13.53589838486224700, 8.000000000000000000 ) ) ;
#98 = CARTESIAN_POINT ( 'NONE',  ( -1.787512317437564900, 13.27677370749535200, 7.805293468617229300 ) ) ;
#99 = CARTESIAN_POINT ( 'NONE',  ( -2.449464741651346900, 13.02889885845283400, 7.623511585590769400 ) ) ;
#100 = ORIENTED_EDGE ( 'NONE', *, *, #228, .F. ) ;
#101 = CARTESIAN_POINT ( 'NONE',  ( 0.0000000000000000000, 26.99999999999997500, -8.000000000000014200 ) ) ;
#102 = CARTESIAN_POINT ( 'NONE',  ( -2.768203796590766000, 12.87566878392316600, 7.512611179876338400 ) ) ;
#103 = ORIENTED_EDGE ( 'NONE', *, *, #33, .T. ) ;
#104 = CARTESIAN_POINT ( 'NONE',  ( -3.359065449806594800, 12.52599083298765200, 7.267665258071404300 ) ) ;
#105 = ORIENTED_EDGE ( 'NONE', *, *, #153, .F. ) ;
#106 = CARTESIAN_POINT ( 'NONE',  ( -3.634526026213379200, 12.32858937409653600, 7.132788144702543900 ) ) ;
#107 = B_SPLINE_CURVE_WITH_KNOTS ( 'NONE', 3,
 ( #147, #141, #169, #176, #178, #179, #183, #184, #186, #187, #191, #193, #196, #205, #212, #214, #219, #237, #226, #233, #243, #254, #294, #262 ),
 .UNSPECIFIED., .F., .F.,
 ( 4, 2, 2, 2, 2, 2, 2, 2, 2, 2, 2, 4 ),
 ( 0.01780921842644479800, 0.01835477757843822000, 0.01890033673043163900, 0.01999145503441847700, 0.02108257333840531400, 0.02217369164239215200, 0.02326480994637898600, 0.02381036909837240900, 0.02435592825036582800, 0.02544704655435266500, 0.02599260570634608400, 0.02653816485833950300 ),
 .UNSPECIFIED. ) ;
#108 = CARTESIAN_POINT ( 'NONE',  ( -4.148304309297536500, 11.88716309328923500, 6.846752333033164100 ) ) ;
#109 = CARTESIAN_POINT ( 'NONE',  ( -4.798876038095201600, 11.13142157971028100, 6.405928874278457900 ) ) ;
#110 = CARTESIAN_POINT ( 'NONE',  ( -4.985614290499659900, 10.85228445941725700, 6.259947605466161100 ) ) ;
#111 = ORIENTED_EDGE ( 'NONE', *, *, #27, .T. ) ;
#112 = DIRECTION ( 'NONE',  ( 1.000000000000000000, 0.0000000000000000000, 0.0000000000000000000 ) ) ;
#113 = DIRECTION ( 'NONE',  ( 0.2588190451025213500, 0.0000000000000000000, -0.9659258262890680900 ) ) ;
#114 = CARTESIAN_POINT ( 'NONE',  ( -3.361083957414262800, 4.475295824973103200, 7.266773562375430400 ) ) ;
#115 = VECTOR ( 'NONE', #227, 1000.000000000000000 ) ;
#116 = ADVANCED_FACE ( 'NONE', ( #190 ), #333, .T. ) ;
#117 = DIRECTION ( 'NONE',  ( -0.0000000000000000000, -1.000000000000000000, -0.0000000000000000000 ) ) ;
#118 = ORIENTED_EDGE ( 'NONE', *, *, #270, .F. ) ;
#119 = DIRECTION ( 'NONE',  ( 1.000000000000000000, 0.0000000000000000000, 0.0000000000000000000 ) ) ;
#120 = CARTESIAN_POINT ( 'NONE',  ( -4.380807134640284600, 11.64816063664325800, 6.698780845825871700 ) ) ;
#121 =( GEOMETRIC_REPRESENTATION_CONTEXT ( 3 ) GLOBAL_UNCERTAINTY_ASSIGNED_CONTEXT ( ( #92 ) ) GLOBAL_UNIT_ASSIGNED_CONTEXT ( ( #288, #287, #276 ) ) REPRESENTATION_CONTEXT ( 'NONE', 'WORKASPACE' ) );
#122 = CARTESIAN_POINT ( 'NONE',  ( -5.304283168535302900, 10.24597962653686500, 5.992317910859624100 ) ) ;
#123 = PRODUCT_RELATED_PRODUCT_CATEGORY ( 'part', '', ( #49 ) ) ;
#124 = CARTESIAN_POINT ( 'NONE',  ( -5.433040936833793700, 9.925836277572251700, 5.873502310681001100 ) ) ;
#125 = PRODUCT_DEFINITION_FORMATION_WITH_SPECIFIED_SOURCE ( 'ANY', '', #49, .NOT_KNOWN. ) ;
#126 = PRODUCT_DEFINITION ( 'UNKNOWN', '', #125, #175 ) ;
#127 = ORIENTED_EDGE ( 'NONE', *, *, #174, .T. ) ;
#128 = AXIS2_PLACEMENT_3D ( 'NONE', #229, #271, #269 ) ;
#129 = CARTESIAN_POINT ( 'NONE',  ( -5.570116154117922500, 9.407611110945378400, 5.742629783762512700 ) ) ;
#130 = ORIENTED_EDGE ( 'NONE', *, *, #202, .T. ) ;
#131 = CARTESIAN_POINT ( 'NONE',  ( -5.605930759863022100, 9.229079996507783400, 5.707423694904607100 ) ) ;
#132 = FACE_OUTER_BOUND ( 'NONE', #296, .T. ) ;
#133 = CARTESIAN_POINT ( 'NONE',  ( -5.654009323111698600, 8.866828659066406700, 5.659798891453914600 ) ) ;
#134 = MECHANICAL_DESIGN_GEOMETRIC_PRESENTATION_REPRESENTATION (  '', ( #165 ), #137 ) ;
#135 = ADVANCED_FACE ( 'NONE', ( #275 ), #21, .T. ) ;
#136 = CARTESIAN_POINT ( 'NONE',  ( -5.666269378535576000, 8.681997892314386800, 5.647423423993464200 ) ) ;
#137 =( GEOMETRIC_REPRESENTATION_CONTEXT ( 3 ) GLOBAL_UNCERTAINTY_ASSIGNED_CONTEXT ( ( #30 ) ) GLOBAL_UNIT_ASSIGNED_CONTEXT ( ( #80, #81, #82 ) ) REPRESENTATION_CONTEXT ( 'NONE', 'WORKASPACE' ) );
#138 = VECTOR ( 'NONE', #90, 1000.000000000000000 ) ;
#139 = PRESENTATION_LAYER_ASSIGNMENT (  '', '', ( #142 ) ) ;
#140 = CARTESIAN_POINT ( 'NONE',  ( -5.666269378535575100, 8.500000000000000000, 5.647423423993463300 ) ) ;
#141 = CARTESIAN_POINT ( 'NONE',  ( 5.666269378535575100, 8.683465470357845100, 5.647423423993464200 ) ) ;
#142 = STYLED_ITEM ( 'NONE', ( #70 ), #317 ) ;
#143 = CIRCLE ( 'NONE', #146, 8.000000000000000000 ) ;
#144 = AXIS2_PLACEMENT_3D ( 'NONE', #218, #213, #211 ) ;
#145 = SURFACE_STYLE_FILL_AREA ( #279 ) ;
#146 = AXIS2_PLACEMENT_3D ( 'NONE', #264, #263, #261 ) ;
#147 = CARTESIAN_POINT ( 'NONE',  ( 5.666269378535575100, 8.500000000000000000, 5.647423423993464200 ) ) ;
#148 = AXIS2_PLACEMENT_3D ( 'NONE', #338, #39, #152 ) ;
#149 = AXIS2_PLACEMENT_3D ( 'NONE', #94, #309, #112 ) ;
#150 = CARTESIAN_POINT ( 'NONE',  ( 4.500000000000000000, 8.500000000000000000, 10.00000000000000000 ) ) ;
#151 = AXIS2_PLACEMENT_3D ( 'NONE', #295, #341, #89 ) ;
#152 = DIRECTION ( 'NONE',  ( 0.0000000000000000000, 0.0000000000000000000, -1.000000000000000000 ) ) ;
#153 = EDGE_CURVE ( 'NONE', #198, #189, #168, .T. ) ;
#154 = CARTESIAN_POINT ( 'NONE',  ( 0.0000000000000000000, 35.00000000000000000, -1.387778780781445700E-014 ) ) ;
#155 = ORIENTED_EDGE ( 'NONE', *, *, #199, .T. ) ;
#156 = EDGE_CURVE ( 'NONE', #26, #250, #77, .T. ) ;
#157 = CARTESIAN_POINT ( 'NONE',  ( -4.500000000000000000, 8.500000000000000000, 10.00000000000000000 ) ) ;
#158 = CARTESIAN_POINT ( 'NONE',  ( 0.0000000000000000000, 0.0000000000000000000, 0.0000000000000000000 ) ) ;
#159 = PRESENTATION_LAYER_ASSIGNMENT (  '', '', ( #165 ) ) ;
#160 = DIRECTION ( 'NONE',  ( 0.0000000000000000000, 1.000000000000000000, 0.0000000000000000000 ) ) ;
#161 = PRODUCT_DEFINITION_SHAPE ( 'NONE', 'NONE',  #126 ) ;
#162 = AXIS2_PLACEMENT_3D ( 'NONE', #55, #59, #60 ) ;
#163 = ORIENTED_EDGE ( 'NONE', *, *, #174, .F. ) ;
#164 = DIRECTION ( 'NONE',  ( 0.0000000000000000000, 0.0000000000000000000, 1.000000000000000000 ) ) ;
#165 = STYLED_ITEM ( 'NONE', ( #260 ), #78 ) ;
#166 = ORIENTED_EDGE ( 'NONE', *, *, #170, .T. ) ;
#167 = AXIS2_PLACEMENT_3D ( 'NONE', #2, #23, #12 ) ;
#168 = B_SPLINE_CURVE_WITH_KNOTS ( 'NONE', 3,
 ( #97, #95, #56, #64, #98, #99, #102, #104, #106, #108, #120, #109, #110, #122, #124, #129, #131, #133, #136, #140 ),
 .UNSPECIFIED., .F., .F.,
 ( 4, 2, 2, 2, 2, 2, 2, 2, 2, 4 ),
 ( 0.02653816485833950300, 0.02762748363244092000, 0.02871680240654233800, 0.02980612118064375500, 0.03089543995474517600, 0.03198475872884658900, 0.03307407750294801000, 0.03416339627704942400, 0.03470805566410013800, 0.03525271505115084400 ),
 .UNSPECIFIED. ) ;
#169 = CARTESIAN_POINT ( 'NONE',  ( 5.654109199034197200, 8.865070209567047500, 5.659696624637055300 ) ) ;
#170 = EDGE_CURVE ( 'NONE', #250, #286, #85, .T. ) ;
#171 = EDGE_LOOP ( 'NONE', ( #299, #274 ) ) ;
#172 = ORIENTED_EDGE ( 'NONE', *, *, #156, .F. ) ;
#173 = ORIENTED_EDGE ( 'NONE', *, *, #27, .F. ) ;
#174 = EDGE_CURVE ( 'NONE', #96, #198, #107, .T. ) ;
#175 = PRODUCT_DEFINITION_CONTEXT ( 'detailed design', #272, 'design' ) ;
#176 = CARTESIAN_POINT ( 'NONE',  ( 5.606629734945373800, 9.224802708804734400, 5.706734594560845000 ) ) ;
#177 = EDGE_LOOP ( 'NONE', ( #173, #36 ) ) ;
#178 = CARTESIAN_POINT ( 'NONE',  ( 5.570818897277042000, 9.404351093045924900, 5.741944292558401700 ) ) ;
#179 = CARTESIAN_POINT ( 'NONE',  ( 5.434511921547545500, 9.921462692172450900, 5.872126527500030900 ) ) ;
#180 = EDGE_LOOP ( 'NONE', ( #118, #20, #87, #127, #197 ) ) ;
#181 = VERTEX_POINT ( 'NONE', #154 ) ;
#182 = VERTEX_POINT ( 'NONE', #157 ) ;
#183 = CARTESIAN_POINT ( 'NONE',  ( 5.306010546688869800, 10.24225509600860600, 5.990807178393208000 ) ) ;
#184 = CARTESIAN_POINT ( 'NONE',  ( 4.986574674429870200, 10.85089154042385400, 6.259200554910807000 ) ) ;
#185 = DIRECTION ( 'NONE',  ( 0.0000000000000000000, 0.0000000000000000000, 1.000000000000000000 ) ) ;
#186 = CARTESIAN_POINT ( 'NONE',  ( 4.800781825168268600, 11.12879889266215200, 6.404512727548660000 ) ) ;
#187 = CARTESIAN_POINT ( 'NONE',  ( 4.382296783430473600, 11.64658435939501400, 6.697817876900931100 ) ) ;
#188 = LINE ( 'NONE', #101, #115 ) ;
#189 = VERTEX_POINT ( 'NONE', #273 ) ;
#190 = FACE_OUTER_BOUND ( 'NONE', #180, .T. ) ;
#191 = CARTESIAN_POINT ( 'NONE',  ( 4.147773768176032900, 11.88760789824566000, 6.847042559001029500 ) ) ;
#192 = LINE ( 'NONE', #28, #301 ) ;
#193 = CARTESIAN_POINT ( 'NONE',  ( 3.635270672229725400, 12.32796061061929500, 7.132378717957076100 ) ) ;
#194 = ORIENTED_EDGE ( 'NONE', *, *, #265, .F. ) ;
#195 = CYLINDRICAL_SURFACE ( 'NONE', #22, 8.000000000000000000 ) ;
#196 = CARTESIAN_POINT ( 'NONE',  ( 3.360587287463964800, 12.52489488421535800, 7.266917924480496000 ) ) ;
#197 = ORIENTED_EDGE ( 'NONE', *, *, #153, .T. ) ;
#198 = VERTEX_POINT ( 'NONE', #252 ) ;
#199 = EDGE_CURVE ( 'NONE', #189, #26, #51, .T. ) ;
#200 = CARTESIAN_POINT ( 'NONE',  ( 0.0000000000000000000, 26.99999999999997500, 0.0000000000000000000 ) ) ;
#201 = DIRECTION ( 'NONE',  ( -0.0000000000000000000, -1.000000000000000000, -0.0000000000000000000 ) ) ;
#202 = EDGE_CURVE ( 'NONE', #79, #286, #68, .T. ) ;
#203 = DIRECTION ( 'NONE',  ( 0.0000000000000000000, 0.0000000000000000000, 1.000000000000000000 ) ) ;
#204 = CARTESIAN_POINT ( 'NONE',  ( -4.500000000000000000, 8.500000000000000000, 10.00000000000000000 ) ) ;
#205 = CARTESIAN_POINT ( 'NONE',  ( 2.918882473700341200, 12.78659203164718000, 7.450203746487410700 ) ) ;
#206 = DIRECTION ( 'NONE',  ( 0.0000000000000000000, 0.0000000000000000000, 1.000000000000000000 ) ) ;
#207 = DIRECTION ( 'NONE',  ( 1.000000000000000000, 0.0000000000000000000, 0.0000000000000000000 ) ) ;
#208 = CARTESIAN_POINT ( 'NONE',  ( 0.0000000000000000000, 8.500000000000000000, 10.00000000000000000 ) ) ;
#209 = CARTESIAN_POINT ( 'NONE',  ( 0.0000000000000000000, 0.0000000000000000000, -8.000000000000000000 ) ) ;
#210 = FACE_OUTER_BOUND ( 'NONE', #177, .T. ) ;
#211 = DIRECTION ( 'NONE',  ( 0.0000000000000000000, 0.0000000000000000000, -1.000000000000000000 ) ) ;
#212 = CARTESIAN_POINT ( 'NONE',  ( 2.766666640956960700, 12.86814870969807800, 7.508218805940135400 ) ) ;
#213 = DIRECTION ( 'NONE',  ( -0.0000000000000000000, -1.000000000000000000, -0.0000000000000000000 ) ) ;
#214 = CARTESIAN_POINT ( 'NONE',  ( 2.451467058758262800, 13.01942246192263900, 7.616961546435711700 ) ) ;
#215 = CARTESIAN_POINT ( 'NONE',  ( 0.0000000000000000000, 8.500000000000000000, 10.00000000000000000 ) ) ;
#216 = DIRECTION ( 'NONE',  ( 0.0000000000000000000, 0.0000000000000000000, 1.000000000000000000 ) ) ;
#217 = DIRECTION ( 'NONE',  ( 1.000000000000000000, 0.0000000000000000000, -0.0000000000000000000 ) ) ;
#218 = CARTESIAN_POINT ( 'NONE',  ( 0.0000000000000000000, 35.00000000000000000, 0.0000000000000000000 ) ) ;
#219 = CARTESIAN_POINT ( 'NONE',  ( 2.287729666063043100, 13.08935364402872500, 7.667851823222635600 ) ) ;
#220 = EDGE_CURVE ( 'NONE', #72, #182, #308, .T. ) ;
#221 = CARTESIAN_POINT ( 'NONE',  ( 0.3627803437315620900, 3.464101615137754800, 8.000000000000000000 ) ) ;
#222 = CARTESIAN_POINT ( 'NONE',  ( 9.797127643282784200E-016, 3.464101615137754800, 8.000000000000000000 ) ) ;
#223 = FACE_OUTER_BOUND ( 'NONE', #1, .T. ) ;
#224 = CIRCLE ( 'NONE', #13, 4.500000000000000000 ) ;
#225 = ORIENTED_EDGE ( 'NONE', *, *, #259, .T. ) ;
#226 = CARTESIAN_POINT ( 'NONE',  ( 1.445802328334883500, 13.37190775245247900, 7.876491795803930900 ) ) ;
#227 = DIRECTION ( 'NONE',  ( 0.0000000000000000000, -0.7071067811865482400, -0.7071067811865469100 ) ) ;
#228 = EDGE_CURVE ( 'NONE', #72, #96, #325, .T. ) ;
#229 = CARTESIAN_POINT ( 'NONE',  ( 0.0000000000000000000, 0.0000000000000000000, 0.0000000000000000000 ) ) ;
#230 = CARTESIAN_POINT ( 'NONE',  ( 5.666269378535575100, 8.500000000000000000, 5.647423423993464200 ) ) ;
#231 = CARTESIAN_POINT ( 'NONE',  ( 5.666269378535572400, 8.316905664095900300, 5.647423423993462400 ) ) ;
#232 = CARTESIAN_POINT ( 'NONE',  ( 5.653779063142049900, 8.131321900994649400, 5.660027361260143100 ) ) ;
#233 = CARTESIAN_POINT ( 'NONE',  ( 0.9111057457271387600, 13.46971865167543400, 7.949984475808697900 ) ) ;
#234 = CARTESIAN_POINT ( 'NONE',  ( 5.606068811819594300, 7.772074917263347900, 5.707286562122187800 ) ) ;
#235 = CARTESIAN_POINT ( 'NONE',  ( 5.570975161028588500, 7.596371352564371000, 5.741791942590173100 ) ) ;
#236 = CARTESIAN_POINT ( 'NONE',  ( 5.480204695550217900, 7.251754232212193500, 5.828489980403183800 ) ) ;
#237 = CARTESIAN_POINT ( 'NONE',  ( 1.789580320430151700, 13.27621335509691700, 7.804872626011468000 ) ) ;
#238 = CARTESIAN_POINT ( 'NONE',  ( 5.297152170451616000, 6.759870295839771600, 5.995624968560402800 ) ) ;
#239 = CARTESIAN_POINT ( 'NONE',  ( 4.988515521953041300, 6.152736999173764200, 6.257579333830576300 ) ) ;
#240 = CARTESIAN_POINT ( 'NONE',  ( 4.799902769513765900, 5.869909071717284400, 6.405190933248011500 ) ) ;
#241 = CARTESIAN_POINT ( 'NONE',  ( 5.424338518085648700, 7.082862195541259200, 5.880807046805529100 ) ) ;
#242 = CARTESIAN_POINT ( 'NONE',  ( 5.225505170725220700, 6.604388957264505100, 6.058443881782802800 ) ) ;
#243 = CARTESIAN_POINT ( 'NONE',  ( 0.7284514678270264100, 13.49472097325740400, 7.968861633625547100 ) ) ;
#244 = CARTESIAN_POINT ( 'NONE',  ( 4.380564883232964700, 5.351478455395663600, 6.698969233541426100 ) ) ;
#245 = CARTESIAN_POINT ( 'NONE',  ( 4.148666119329173600, 5.113355808889246600, 6.846453893959242100 ) ) ;
#246 = COLOUR_RGB ( '',0.7921568627450980000, 0.8196078431372548800, 0.9333333333333333500 ) ;
#247 = CARTESIAN_POINT ( 'NONE',  ( 3.638203414662471300, 4.674363747923505800, 7.130837076060410100 ) ) ;
#248 = CONICAL_SURFACE ( 'NONE', #167, 8.000000000000014200, 0.7853981633974473900 ) ;
#249 = CARTESIAN_POINT ( 'NONE',  ( 3.359354282967790300, 4.474214287793557800, 7.267525133740299700 ) ) ;
#250 = VERTEX_POINT ( 'NONE', #291 ) ;
#251 = CARTESIAN_POINT ( 'NONE',  ( 2.768785071959294400, 4.124641084725006100, 7.512390564483210300 ) ) ;
#252 = CARTESIAN_POINT ( 'NONE',  ( 9.796880549138748300E-016, 13.53589838486224700, 8.000000000000000000 ) ) ;
#253 = CARTESIAN_POINT ( 'NONE',  ( 2.453098445307435600, 3.972579707563669500, 7.622432709798745900 ) ) ;
#254 = CARTESIAN_POINT ( 'NONE',  ( 0.3638056837062060300, 13.52773520666534400, 7.993812776225845500 ) ) ;
#255 = CARTESIAN_POINT ( 'NONE',  ( 1.787360647859176600, 3.723052224678942100, 7.805415704000913600 ) ) ;
#256 = ADVANCED_FACE ( 'NONE', ( #132 ), #62, .T. ) ;
#257 = CARTESIAN_POINT ( 'NONE',  ( 1.443458419514911400, 3.627563988139544700, 7.876887567987914500 ) ) ;
#258 = CARTESIAN_POINT ( 'NONE',  ( 0.7319909624725364800, 3.497616210559363600, 7.974529402945960600 ) ) ;
#259 = EDGE_CURVE ( 'NONE', #61, #79, #38, .T. ) ;
#260 = PRESENTATION_STYLE_ASSIGNMENT (( #75 ) ) ;
#261 = DIRECTION ( 'NONE',  ( 0.0000000000000000000, 0.0000000000000000000, 1.000000000000000000 ) ) ;
#262 = CARTESIAN_POINT ( 'NONE',  ( 9.796880549138748300E-016, 13.53589838486224700, 8.000000000000000000 ) ) ;
#263 = DIRECTION ( 'NONE',  ( -0.0000000000000000000, -1.000000000000000000, -0.0000000000000000000 ) ) ;
#264 = CARTESIAN_POINT ( 'NONE',  ( 0.0000000000000000000, 26.99999999999997500, 0.0000000000000000000 ) ) ;
#265 = EDGE_CURVE ( 'NONE', #182, #72, #224, .T. ) ;
#266 = APPLICATION_PROTOCOL_DEFINITION ( 'draft international standard', 'automotive_design', 1998, #272 ) ;
#267 = ORIENTED_EDGE ( 'NONE', *, *, #337, .F. ) ;
#268 = PRODUCT_CONTEXT ( 'NONE', #282, 'mechanical' ) ;
#269 = DIRECTION ( 'NONE',  ( 1.000000000000000000, 0.0000000000000000000, 0.0000000000000000000 ) ) ;
#270 = EDGE_CURVE ( 'NONE', #182, #189, #300, .T. ) ;
#271 = DIRECTION ( 'NONE',  ( 0.0000000000000000000, 0.0000000000000000000, 1.000000000000000000 ) ) ;
#272 = APPLICATION_CONTEXT ( 'automotive_design' ) ;
#273 = CARTESIAN_POINT ( 'NONE',  ( -5.666269378535575100, 8.500000000000000000, 5.647423423993463300 ) ) ;
#274 = ORIENTED_EDGE ( 'NONE', *, *, #265, .T. ) ;
#275 = FACE_OUTER_BOUND ( 'NONE', #88, .T. ) ;
#276 =( NAMED_UNIT ( * ) SI_UNIT ( $, .STERADIAN. ) SOLID_ANGLE_UNIT ( ) );
#277 = SURFACE_STYLE_USAGE ( .BOTH. , #278 ) ;
#278 = SURFACE_SIDE_STYLE ('',( #145 ) ) ;
#279 = FILL_AREA_STYLE ('',( #281 ) ) ;
#280 = CARTESIAN_POINT ( 'NONE',  ( -5.666269378535573300, 8.317756283041475700, 5.647423423993462400 ) ) ;
#281 = FILL_AREA_STYLE_COLOUR ( '', #246 ) ;
#282 = APPLICATION_CONTEXT ( 'automotive_design' ) ;
#283 = APPLICATION_PROTOCOL_DEFINITION ( 'draft international standard', 'automotive_design', 1998, #282 ) ;
#284 = CARTESIAN_POINT ( 'NONE',  ( 0.0000000000000000000, 35.00000000000000000, -8.000000000000000000 ) ) ;
#285 =( NAMED_UNIT ( * ) SI_UNIT ( $, .STERADIAN. ) SOLID_ANGLE_UNIT ( ) );
#286 = VERTEX_POINT ( 'NONE', #209 ) ;
#287 =( NAMED_UNIT ( * ) PLANE_ANGLE_UNIT ( ) SI_UNIT ( $, .RADIAN. ) );
#288 =( LENGTH_UNIT ( ) NAMED_UNIT ( * ) SI_UNIT ( .MILLI., .METRE. ) );
#289 =( NAMED_UNIT ( * ) PLANE_ANGLE_UNIT ( ) SI_UNIT ( $, .RADIAN. ) );
#290 =( LENGTH_UNIT ( ) NAMED_UNIT ( * ) SI_UNIT ( .MILLI., .METRE. ) );
#291 = CARTESIAN_POINT ( 'NONE',  ( 9.797174393178825700E-016, 0.0000000000000000000, 8.000000000000000000 ) ) ;
#292 = CARTESIAN_POINT ( 'NONE',  ( -5.606928420941914100, 7.776886852537434600, 5.706440561895655100 ) ) ;
#293 = ORIENTED_EDGE ( 'NONE', *, *, #32, .F. ) ;
#294 = CARTESIAN_POINT ( 'NONE',  ( 0.1817646706485091800, 13.53589838486224300, 8.000000000000000000 ) ) ;
#295 = CARTESIAN_POINT ( 'NONE',  ( 0.0000000000000000000, 8.500000000000000000, 10.00000000000000000 ) ) ;
#296 = EDGE_LOOP ( 'NONE', ( #7, #76, #304 ) ) ;
#297 = CARTESIAN_POINT ( 'NONE',  ( -5.666269378535575100, 8.500000000000000000, 5.647423423993463300 ) ) ;
#298 = CARTESIAN_POINT ( 'NONE',  ( -5.654267329961412800, 8.136706896046810300, 5.659538069961647500 ) ) ;
#299 = ORIENTED_EDGE ( 'NONE', *, *, #220, .T. ) ;
#300 = LINE ( 'NONE', #204, #138 ) ;
#301 = VECTOR ( 'NONE', #43, 1000.000000000000000 ) ;
#302 = CARTESIAN_POINT ( 'NONE',  ( -5.571172928069795000, 7.597275561720395300, 5.741599379696359600 ) ) ;
#303 = EDGE_LOOP ( 'NONE', ( #293, #225, #130, #111, #172, #57, #105 ) ) ;
#304 = ORIENTED_EDGE ( 'NONE', *, *, #259, .F. ) ;
#305 = CARTESIAN_POINT ( 'NONE',  ( -5.480495174575444200, 7.252704510401466500, 5.828216182747744300 ) ) ;
#306 = UNCERTAINTY_MEASURE_WITH_UNIT (LENGTH_MEASURE( 1.000000000000000100E-005 ), #290, 'distance_accuracy_value', 'NONE');
#307 = CIRCLE ( 'NONE', #24, 8.000000000000000000 ) ;
#308 = CIRCLE ( 'NONE', #18, 4.500000000000000000 ) ;
#309 = DIRECTION ( 'NONE',  ( -0.0000000000000000000, -0.0000000000000000000, -1.000000000000000000 ) ) ;
#310 = CARTESIAN_POINT ( 'NONE',  ( -5.298079932012850400, 6.761939318671272400, 5.994807360372574200 ) ) ;
#311 = CARTESIAN_POINT ( 'NONE',  ( -5.225253284214738300, 6.603805258912383500, 6.058669719845634700 ) ) ;
#312 = ADVANCED_FACE ( 'NONE', ( #329 ), #313, .T. ) ;
#313 = PLANE ( 'NONE',  #9 ) ;
#314 = CARTESIAN_POINT ( 'NONE',  ( -4.987086786288870100, 6.150222711721235100, 6.258751314719904500 ) ) ;
#315 = CARTESIAN_POINT ( 'NONE',  ( -2.449550869307741200, 3.971191990481015600, 7.623447666468746500 ) ) ;
#316 = CARTESIAN_POINT ( 'NONE',  ( -5.425474583963072900, 7.086038981958061800, 5.879761202017066400 ) ) ;
#317 = ADVANCED_BREP_SHAPE_REPRESENTATION ( '5405068', ( #78, #128 ), #11 ) ;
#318 = CARTESIAN_POINT ( 'NONE',  ( -4.801746945334043600, 5.872461797041642800, 6.403816093490569900 ) ) ;
#319 = ADVANCED_FACE ( 'NONE', ( #53 ), #339, .T. ) ;
#320 = FACE_OUTER_BOUND ( 'NONE', #83, .T. ) ;
#321 = SHAPE_DEFINITION_REPRESENTATION ( #161, #317 ) ;
#322 = CARTESIAN_POINT ( 'NONE',  ( -4.145749192870444400, 5.110570221582800200, 6.848208149863467000 ) ) ;
#323 = CARTESIAN_POINT ( 'NONE',  ( -2.768517927484006200, 4.124425399117822800, 7.512535647890508100 ) ) ;
#324 = CARTESIAN_POINT ( 'NONE',  ( -1.789173426284798000, 3.723789868961454400, 7.804877464469919700 ) ) ;
#325 = LINE ( 'NONE', #150, #44 ) ;
#326 = CARTESIAN_POINT ( 'NONE',  ( -1.444296838415670500, 3.627524357001105300, 7.876915132127342300 ) ) ;
#327 = CARTESIAN_POINT ( 'NONE',  ( -0.3634063656932567900, 3.464101615137753900, 8.000000000000001800 ) ) ;
#328 = EDGE_CURVE ( 'NONE', #181, #79, #188, .T. ) ;
#329 = FACE_OUTER_BOUND ( 'NONE', #171, .T. ) ;
#330 = CLOSED_SHELL ( 'NONE', ( #135, #17, #4, #319, #47, #256, #116, #312 ) ) ;
#331 = EDGE_CURVE ( 'NONE', #79, #61, #143, .T. ) ;
#332 = ORIENTED_EDGE ( 'NONE', *, *, #156, .T. ) ;
#333 = CONICAL_SURFACE ( 'NONE', #151, 4.500000000000000000, 0.2617993877991500700 ) ;
#334 = CARTESIAN_POINT ( 'NONE',  ( 9.797127643282784200E-016, 3.464101615137754800, 8.000000000000000000 ) ) ;
#335 = DIRECTION ( 'NONE',  ( -0.0000000000000000000, -1.000000000000000000, -0.0000000000000000000 ) ) ;
#336 = ORIENTED_EDGE ( 'NONE', *, *, #328, .F. ) ;
#337 = EDGE_CURVE ( 'NONE', #26, #96, #5, .T. ) ;
#338 = CARTESIAN_POINT ( 'NONE',  ( 0.0000000000000000000, 26.99999999999997500, 0.0000000000000000000 ) ) ;
#339 = CYLINDRICAL_SURFACE ( 'NONE', #144, 8.000000000000000000 ) ;
#340 = CARTESIAN_POINT ( 'NONE',  ( -0.7249556184833085800, 3.496525656497894400, 7.975351071108011800 ) ) ;
#341 = DIRECTION ( 'NONE',  ( -0.0000000000000000000, -0.0000000000000000000, -1.000000000000000000 ) ) ;
ENDSEC;
END-ISO-10303-21;
