ISO-10303-21;
HEADER;
FILE_DESCRIPTION (( 'STEP AP214' ),
    '1' );
FILE_NAME ('2046594.stp',
    '2022-02-25T07:23:50',
    ( '' ),
    ( '' ),
    'SwSTEP 2.0',
    'SolidWorks 2020',
    '' );
FILE_SCHEMA (( 'AUTOMOTIVE_DESIGN' ));
ENDSEC;

DATA;
#1 = CARTESIAN_POINT ( 'NONE',  ( 0.000000000000000000, 0.000000000000000000, 0.000000000000000000 ) ) ;
#2 = APPLICATION_CONTEXT ( 'automotive_design' ) ;
#3 = DIRECTION ( 'NONE',  ( 0.000000000000000000, 0.000000000000000000, 1.000000000000000000 ) ) ;
#4 = FACE_OUTER_BOUND ( 'NONE', #120, .T. ) ;
#5 = DIRECTION ( 'NONE',  ( 1.000000000000000000, 0.000000000000000000, 0.000000000000000000 ) ) ;
#6 = ADVANCED_BREP_SHAPE_REPRESENTATION ( '2046594', ( #126, #28 ), #92 ) ;
#7 = EDGE_LOOP ( 'NONE', ( #91 ) ) ;
#8 = ORIENTED_EDGE ( 'NONE', *, *, #163, .T. ) ;
#9 = STYLED_ITEM ( 'NONE', ( #87 ), #126 ) ;
#10 = PRODUCT_DEFINITION ( 'UNKNOWN', '', #93, #152 ) ;
#11 = CIRCLE ( 'NONE', #103, 9.849999999999999645 ) ;
#12 = FACE_OUTER_BOUND ( 'NONE', #74, .T. ) ;
#13 = CARTESIAN_POINT ( 'NONE',  ( 9.200000000000001066, 0.000000000000000000, 0.000000000000000000 ) ) ;
#14 = SURFACE_STYLE_USAGE ( .BOTH. , #45 ) ;
#15 = FACE_OUTER_BOUND ( 'NONE', #63, .T. ) ;
#16 = FACE_OUTER_BOUND ( 'NONE', #7, .T. ) ;
#17 = PRESENTATION_LAYER_ASSIGNMENT (  '', '', ( #83 ) ) ;
#18 = DIRECTION ( 'NONE',  ( 0.000000000000000000, 0.000000000000000000, 1.000000000000000000 ) ) ;
#19 = FACE_OUTER_BOUND ( 'NONE', #41, .T. ) ;
#20 = SURFACE_STYLE_USAGE ( .BOTH. , #181 ) ;
#21 = CARTESIAN_POINT ( 'NONE',  ( 0.000000000000000000, 0.000000000000000000, -0.1500000000000945022 ) ) ;
#22 = AXIS2_PLACEMENT_3D ( 'NONE', #153, #67, #70 ) ;
#23 = EDGE_CURVE ( 'NONE', #53, #53, #177, .T. ) ;
#24 = EDGE_CURVE ( 'NONE', #118, #118, #121, .T. ) ;
#25 = FACE_BOUND ( 'NONE', #58, .T. ) ;
#26 = ORIENTED_EDGE ( 'NONE', *, *, #199, .T. ) ;
#27 = CIRCLE ( 'NONE', #150, 9.200000000000001066 ) ;
#28 = AXIS2_PLACEMENT_3D ( 'NONE', #211, #131, #65 ) ;
#29 = AXIS2_PLACEMENT_3D ( 'NONE', #57, #160, #191 ) ;
#30 =( NAMED_UNIT ( * ) PLANE_ANGLE_UNIT ( ) SI_UNIT ( $, .RADIAN. ) );
#31 = ORIENTED_EDGE ( 'NONE', *, *, #193, .F. ) ;
#32 = CARTESIAN_POINT ( 'NONE',  ( 10.00000000000000000, 0.000000000000000000, -0.1500000000000945022 ) ) ;
#33 = CARTESIAN_POINT ( 'NONE',  ( 0.000000000000000000, 0.000000000000000000, 0.000000000000000000 ) ) ;
#34 = FACE_OUTER_BOUND ( 'NONE', #42, .T. ) ;
#35 =( LENGTH_UNIT ( ) NAMED_UNIT ( * ) SI_UNIT ( .MILLI., .METRE. ) );
#36 = DIRECTION ( 'NONE',  ( 1.000000000000000000, 0.000000000000000000, 0.000000000000000000 ) ) ;
#37 = CYLINDRICAL_SURFACE ( 'NONE', #188, 10.00000000000000000 ) ;
#38 = VERTEX_POINT ( 'NONE', #213 ) ;
#39 = MECHANICAL_DESIGN_GEOMETRIC_PRESENTATION_REPRESENTATION (  '', ( #9 ), #46 ) ;
#40 = APPLICATION_CONTEXT ( 'automotive_design' ) ;
#41 = EDGE_LOOP ( 'NONE', ( #31 ) ) ;
#42 = EDGE_LOOP ( 'NONE', ( #104 ) ) ;
#43 = ORIENTED_EDGE ( 'NONE', *, *, #60, .T. ) ;
#44 = ORIENTED_EDGE ( 'NONE', *, *, #193, .T. ) ;
#45 = SURFACE_SIDE_STYLE ('',( #127 ) ) ;
#46 =( GEOMETRIC_REPRESENTATION_CONTEXT ( 3 ) GLOBAL_UNCERTAINTY_ASSIGNED_CONTEXT ( ( #111 ) ) GLOBAL_UNIT_ASSIGNED_CONTEXT ( ( #35, #139, #49 ) ) REPRESENTATION_CONTEXT ( 'NONE', 'WORKASPACE' ) );
#47 = SURFACE_STYLE_FILL_AREA ( #73 ) ;
#48 = PLANE ( 'NONE',  #22 ) ;
#49 =( NAMED_UNIT ( * ) SI_UNIT ( $, .STERADIAN. ) SOLID_ANGLE_UNIT ( ) );
#50 = PRODUCT_DEFINITION_SHAPE ( 'NONE', 'NONE',  #10 ) ;
#51 = CARTESIAN_POINT ( 'NONE',  ( 0.000000000000000000, 0.000000000000000000, -0.1500000000000945022 ) ) ;
#52 = DIRECTION ( 'NONE',  ( 1.000000000000000000, 0.000000000000000000, 0.000000000000000000 ) ) ;
#53 = VERTEX_POINT ( 'NONE', #179 ) ;
#54 = TOROIDAL_SURFACE ( 'NONE', #82, 9.200000000000001066, 0.1499999999999999944 ) ;
#55 = ADVANCED_FACE ( 'NONE', ( #12, #25 ), #124, .F. ) ;
#56 = ORIENTED_EDGE ( 'NONE', *, *, #24, .T. ) ;
#57 = CARTESIAN_POINT ( 'NONE',  ( 0.000000000000000000, 0.000000000000000000, -3000.000000000000000 ) ) ;
#58 = EDGE_LOOP ( 'NONE', ( #192 ) ) ;
#59 = VERTEX_POINT ( 'NONE', #164 ) ;
#60 = EDGE_CURVE ( 'NONE', #38, #38, #205, .T. ) ;
#61 = VERTEX_POINT ( 'NONE', #209 ) ;
#62 = ADVANCED_FACE ( 'NONE', ( #34, #19 ), #212, .T. ) ;
#63 = EDGE_LOOP ( 'NONE', ( #190 ) ) ;
#64 =( NAMED_UNIT ( * ) SI_UNIT ( $, .STERADIAN. ) SOLID_ANGLE_UNIT ( ) );
#65 = DIRECTION ( 'NONE',  ( 1.000000000000000000, 0.000000000000000000, 0.000000000000000000 ) ) ;
#66 = COLOUR_RGB ( '',0.7529411764705882248, 0.7529411764705882248, 0.7529411764705882248 ) ;
#67 = DIRECTION ( 'NONE',  ( 0.000000000000000000, 0.000000000000000000, 1.000000000000000000 ) ) ;
#68 = VERTEX_POINT ( 'NONE', #133 ) ;
#69 = AXIS2_PLACEMENT_3D ( 'NONE', #206, #174, #207 ) ;
#70 = DIRECTION ( 'NONE',  ( 1.000000000000000000, 0.000000000000000000, -0.000000000000000000 ) ) ;
#71 = FILL_AREA_STYLE_COLOUR ( '', #66 ) ;
#72 = ADVANCED_FACE ( 'NONE', ( #155, #182 ), #75, .T. ) ;
#73 = FILL_AREA_STYLE ('',( #71 ) ) ;
#74 = EDGE_LOOP ( 'NONE', ( #56 ) ) ;
#75 = TOROIDAL_SURFACE ( 'NONE', #161, 9.200000000000001066, 0.1499999999999999944 ) ;
#76 = CIRCLE ( 'NONE', #130, 9.050000000000000711 ) ;
#77 = ORIENTED_EDGE ( 'NONE', *, *, #106, .F. ) ;
#78 = ADVANCED_FACE ( 'NONE', ( #197, #99 ), #48, .T. ) ;
#79 = VERTEX_POINT ( 'NONE', #32 ) ;
#80 =( LENGTH_UNIT ( ) NAMED_UNIT ( * ) SI_UNIT ( .MILLI., .METRE. ) );
#81 = PRESENTATION_STYLE_ASSIGNMENT (( #14 ) ) ;
#82 = AXIS2_PLACEMENT_3D ( 'NONE', #116, #96, #200 ) ;
#83 = STYLED_ITEM ( 'NONE', ( #81 ), #6 ) ;
#84 = DIRECTION ( 'NONE',  ( 1.000000000000000000, 0.000000000000000000, 0.000000000000000000 ) ) ;
#85 = AXIS2_PLACEMENT_3D ( 'NONE', #144, #208, #162 ) ;
#86 = DIRECTION ( 'NONE',  ( 1.000000000000000000, 0.000000000000000000, 0.000000000000000000 ) ) ;
#87 = PRESENTATION_STYLE_ASSIGNMENT (( #20 ) ) ;
#88 = DIRECTION ( 'NONE',  ( 0.000000000000000000, 0.000000000000000000, 1.000000000000000000 ) ) ;
#89 = EDGE_LOOP ( 'NONE', ( #77 ) ) ;
#90 = EDGE_LOOP ( 'NONE', ( #8 ) ) ;
#91 = ORIENTED_EDGE ( 'NONE', *, *, #60, .F. ) ;
#92 =( GEOMETRIC_REPRESENTATION_CONTEXT ( 3 ) GLOBAL_UNCERTAINTY_ASSIGNED_CONTEXT ( ( #117 ) ) GLOBAL_UNIT_ASSIGNED_CONTEXT ( ( #80, #109, #64 ) ) REPRESENTATION_CONTEXT ( 'NONE', 'WORKASPACE' ) );
#93 = PRODUCT_DEFINITION_FORMATION_WITH_SPECIFIED_SOURCE ( 'ANY', '', #138, .NOT_KNOWN. ) ;
#94 = PRODUCT_CONTEXT ( 'NONE', #40, 'mechanical' ) ;
#95 = VERTEX_POINT ( 'NONE', #13 ) ;
#96 = DIRECTION ( 'NONE',  ( 0.000000000000000000, 0.000000000000000000, 1.000000000000000000 ) ) ;
#97 = DIRECTION ( 'NONE',  ( 0.000000000000000000, 0.000000000000000000, 1.000000000000000000 ) ) ;
#98 = ADVANCED_FACE ( 'NONE', ( #168, #16 ), #196, .T. ) ;
#99 = FACE_BOUND ( 'NONE', #90, .T. ) ;
#100 = DIRECTION ( 'NONE',  ( 1.000000000000000000, 0.000000000000000000, 0.000000000000000000 ) ) ;
#101 = FACE_OUTER_BOUND ( 'NONE', #159, .T. ) ;
#102 = CIRCLE ( 'NONE', #187, 9.200000000000001066 ) ;
#103 = AXIS2_PLACEMENT_3D ( 'NONE', #33, #154, #100 ) ;
#104 = ORIENTED_EDGE ( 'NONE', *, *, #178, .F. ) ;
#105 = CARTESIAN_POINT ( 'NONE',  ( 0.000000000000000000, 0.000000000000000000, -2999.849999999999909 ) ) ;
#106 = EDGE_CURVE ( 'NONE', #68, #68, #102, .T. ) ;
#107 = ORIENTED_EDGE ( 'NONE', *, *, #178, .T. ) ;
#108 = AXIS2_PLACEMENT_3D ( 'NONE', #183, #184, #151 ) ;
#109 =( NAMED_UNIT ( * ) PLANE_ANGLE_UNIT ( ) SI_UNIT ( $, .RADIAN. ) );
#110 = CLOSED_SHELL ( 'NONE', ( #185, #55, #78, #172, #98, #72, #62, #176 ) ) ;
#111 = UNCERTAINTY_MEASURE_WITH_UNIT (LENGTH_MEASURE( 1.000000000000000082E-05 ), #35, 'distance_accuracy_value', 'NONE');
#112 = DIRECTION ( 'NONE',  ( -0.000000000000000000, -0.000000000000000000, -1.000000000000000000 ) ) ;
#113 = PRODUCT_RELATED_PRODUCT_CATEGORY ( 'part', '', ( #138 ) ) ;
#114 = DIRECTION ( 'NONE',  ( 1.000000000000000000, 0.000000000000000000, 0.000000000000000000 ) ) ;
#115 = DIRECTION ( 'NONE',  ( 1.000000000000000000, 0.000000000000000000, 0.000000000000000000 ) ) ;
#116 = CARTESIAN_POINT ( 'NONE',  ( 0.000000000000000000, 0.000000000000000000, -0.1500000000000945022 ) ) ;
#117 = UNCERTAINTY_MEASURE_WITH_UNIT (LENGTH_MEASURE( 1.000000000000000082E-05 ), #80, 'distance_accuracy_value', 'NONE');
#118 = VERTEX_POINT ( 'NONE', #186 ) ;
#119 = COLOUR_RGB ( '',0.7529411764705882248, 0.7529411764705882248, 0.7529411764705882248 ) ;
#120 = EDGE_LOOP ( 'NONE', ( #140 ) ) ;
#121 = CIRCLE ( 'NONE', #69, 9.849999999999999645 ) ;
#122 = ORIENTED_EDGE ( 'NONE', *, *, #23, .T. ) ;
#123 = EDGE_LOOP ( 'NONE', ( #107 ) ) ;
#124 = PLANE ( 'NONE',  #29 ) ;
#125 = DIRECTION ( 'NONE',  ( 1.000000000000000000, 0.000000000000000000, 0.000000000000000000 ) ) ;
#126 = MANIFOLD_SOLID_BREP ( 'Verrundung1', #110 ) ;
#127 = SURFACE_STYLE_FILL_AREA ( #149 ) ;
#128 = APPLICATION_PROTOCOL_DEFINITION ( 'draft international standard', 'automotive_design', 1998, #40 ) ;
#129 = PRESENTATION_LAYER_ASSIGNMENT (  '', '', ( #9 ) ) ;
#130 = AXIS2_PLACEMENT_3D ( 'NONE', #21, #169, #5 ) ;
#131 = DIRECTION ( 'NONE',  ( 0.000000000000000000, 0.000000000000000000, 1.000000000000000000 ) ) ;
#132 = DIRECTION ( 'NONE',  ( 0.000000000000000000, 0.000000000000000000, 1.000000000000000000 ) ) ;
#133 = CARTESIAN_POINT ( 'NONE',  ( 9.200000000000001066, 0.000000000000000000, -3000.000000000000000 ) ) ;
#134 = CARTESIAN_POINT ( 'NONE',  ( 0.000000000000000000, 0.000000000000000000, -2999.849999999999909 ) ) ;
#135 = CARTESIAN_POINT ( 'NONE',  ( 0.000000000000000000, 0.000000000000000000, -3000.000000000000000 ) ) ;
#136 = UNCERTAINTY_MEASURE_WITH_UNIT (LENGTH_MEASURE( 1.000000000000000082E-05 ), #194, 'distance_accuracy_value', 'NONE');
#137 = DIRECTION ( 'NONE',  ( 1.000000000000000000, 0.000000000000000000, 0.000000000000000000 ) ) ;
#138 = PRODUCT ( '2046594', '2046594', '', ( #94 ) ) ;
#139 =( NAMED_UNIT ( * ) PLANE_ANGLE_UNIT ( ) SI_UNIT ( $, .RADIAN. ) );
#140 = ORIENTED_EDGE ( 'NONE', *, *, #163, .F. ) ;
#141 = EDGE_LOOP ( 'NONE', ( #122 ) ) ;
#142 = AXIS2_PLACEMENT_3D ( 'NONE', #134, #180, #86 ) ;
#143 = DIRECTION ( 'NONE',  ( 0.000000000000000000, 0.000000000000000000, 1.000000000000000000 ) ) ;
#144 = CARTESIAN_POINT ( 'NONE',  ( 0.000000000000000000, 0.000000000000000000, -2999.849999999999909 ) ) ;
#145 = APPLICATION_PROTOCOL_DEFINITION ( 'draft international standard', 'automotive_design', 1998, #2 ) ;
#146 = EDGE_LOOP ( 'NONE', ( #44 ) ) ;
#147 = FILL_AREA_STYLE_COLOUR ( '', #119 ) ;
#148 =( NAMED_UNIT ( * ) SI_UNIT ( $, .STERADIAN. ) SOLID_ANGLE_UNIT ( ) );
#149 = FILL_AREA_STYLE ('',( #147 ) ) ;
#150 = AXIS2_PLACEMENT_3D ( 'NONE', #1, #112, #137 ) ;
#151 = DIRECTION ( 'NONE',  ( 1.000000000000000000, 0.000000000000000000, 0.000000000000000000 ) ) ;
#152 = PRODUCT_DEFINITION_CONTEXT ( 'detailed design', #2, 'design' ) ;
#153 = CARTESIAN_POINT ( 'NONE',  ( 0.000000000000000000, 0.000000000000000000, 0.000000000000000000 ) ) ;
#154 = DIRECTION ( 'NONE',  ( 0.000000000000000000, 0.000000000000000000, 1.000000000000000000 ) ) ;
#155 = FACE_OUTER_BOUND ( 'NONE', #204, .T. ) ;
#156 = FACE_OUTER_BOUND ( 'NONE', #141, .T. ) ;
#157 = FACE_OUTER_BOUND ( 'NONE', #173, .T. ) ;
#158 = ORIENTED_EDGE ( 'NONE', *, *, #24, .F. ) ;
#159 = EDGE_LOOP ( 'NONE', ( #43 ) ) ;
#160 = DIRECTION ( 'NONE',  ( 0.000000000000000000, 0.000000000000000000, 1.000000000000000000 ) ) ;
#161 = AXIS2_PLACEMENT_3D ( 'NONE', #166, #3, #114 ) ;
#162 = DIRECTION ( 'NONE',  ( 1.000000000000000000, 0.000000000000000000, 0.000000000000000000 ) ) ;
#163 = EDGE_CURVE ( 'NONE', #95, #95, #27, .T. ) ;
#164 = CARTESIAN_POINT ( 'NONE',  ( 9.050000000000000711, 0.000000000000000000, -0.1500000000000945022 ) ) ;
#165 = FACE_OUTER_BOUND ( 'NONE', #123, .T. ) ;
#166 = CARTESIAN_POINT ( 'NONE',  ( 0.000000000000000000, 0.000000000000000000, -2999.849999999999909 ) ) ;
#167 = CYLINDRICAL_SURFACE ( 'NONE', #175, 9.050000000000000711 ) ;
#168 = FACE_OUTER_BOUND ( 'NONE', #214, .T. ) ;
#169 = DIRECTION ( 'NONE',  ( 0.000000000000000000, 0.000000000000000000, 1.000000000000000000 ) ) ;
#170 = CARTESIAN_POINT ( 'NONE',  ( 0.000000000000000000, 0.000000000000000000, -3000.000000000000000 ) ) ;
#171 = AXIS2_PLACEMENT_3D ( 'NONE', #51, #97, #115 ) ;
#172 = ADVANCED_FACE ( 'NONE', ( #156, #157 ), #167, .F. ) ;
#173 = EDGE_LOOP ( 'NONE', ( #26 ) ) ;
#174 = DIRECTION ( 'NONE',  ( -0.000000000000000000, -0.000000000000000000, -1.000000000000000000 ) ) ;
#175 = AXIS2_PLACEMENT_3D ( 'NONE', #135, #18, #52 ) ;
#176 = ADVANCED_FACE ( 'NONE', ( #4, #15 ), #54, .T. ) ;
#177 = CIRCLE ( 'NONE', #85, 9.050000000000000711 ) ;
#178 = EDGE_CURVE ( 'NONE', #79, #79, #201, .T. ) ;
#179 = CARTESIAN_POINT ( 'NONE',  ( 9.050000000000000711, 0.000000000000000000, -2999.849999999999909 ) ) ;
#180 = DIRECTION ( 'NONE',  ( 0.000000000000000000, 0.000000000000000000, 1.000000000000000000 ) ) ;
#181 = SURFACE_SIDE_STYLE ('',( #47 ) ) ;
#182 = FACE_OUTER_BOUND ( 'NONE', #89, .T. ) ;
#183 = CARTESIAN_POINT ( 'NONE',  ( 0.000000000000000000, 0.000000000000000000, -0.1500000000000945022 ) ) ;
#184 = DIRECTION ( 'NONE',  ( -0.000000000000000000, -0.000000000000000000, -1.000000000000000000 ) ) ;
#185 = ADVANCED_FACE ( 'NONE', ( #101, #165 ), #37, .T. ) ;
#186 = CARTESIAN_POINT ( 'NONE',  ( 9.849999999999999645, 0.000000000000000000, -3000.000000000000000 ) ) ;
#187 = AXIS2_PLACEMENT_3D ( 'NONE', #198, #132, #36 ) ;
#188 = AXIS2_PLACEMENT_3D ( 'NONE', #170, #88, #84 ) ;
#189 = AXIS2_PLACEMENT_3D ( 'NONE', #105, #143, #125 ) ;
#190 = ORIENTED_EDGE ( 'NONE', *, *, #199, .F. ) ;
#191 = DIRECTION ( 'NONE',  ( 1.000000000000000000, 0.000000000000000000, -0.000000000000000000 ) ) ;
#192 = ORIENTED_EDGE ( 'NONE', *, *, #106, .T. ) ;
#193 = EDGE_CURVE ( 'NONE', #61, #61, #11, .T. ) ;
#194 =( LENGTH_UNIT ( ) NAMED_UNIT ( * ) SI_UNIT ( .MILLI., .METRE. ) );
#195 = MECHANICAL_DESIGN_GEOMETRIC_PRESENTATION_REPRESENTATION (  '', ( #83 ), #203 ) ;
#196 = TOROIDAL_SURFACE ( 'NONE', #142, 9.849999999999999645, 0.1499999999999999944 ) ;
#197 = FACE_OUTER_BOUND ( 'NONE', #146, .T. ) ;
#198 = CARTESIAN_POINT ( 'NONE',  ( 0.000000000000000000, 0.000000000000000000, -3000.000000000000000 ) ) ;
#199 = EDGE_CURVE ( 'NONE', #59, #59, #76, .T. ) ;
#200 = DIRECTION ( 'NONE',  ( 1.000000000000000000, 0.000000000000000000, 0.000000000000000000 ) ) ;
#201 = CIRCLE ( 'NONE', #108, 10.00000000000000000 ) ;
#202 = ORIENTED_EDGE ( 'NONE', *, *, #23, .F. ) ;
#203 =( GEOMETRIC_REPRESENTATION_CONTEXT ( 3 ) GLOBAL_UNCERTAINTY_ASSIGNED_CONTEXT ( ( #136 ) ) GLOBAL_UNIT_ASSIGNED_CONTEXT ( ( #194, #30, #148 ) ) REPRESENTATION_CONTEXT ( 'NONE', 'WORKASPACE' ) );
#204 = EDGE_LOOP ( 'NONE', ( #202 ) ) ;
#205 = CIRCLE ( 'NONE', #189, 10.00000000000000000 ) ;
#206 = CARTESIAN_POINT ( 'NONE',  ( 0.000000000000000000, 0.000000000000000000, -3000.000000000000000 ) ) ;
#207 = DIRECTION ( 'NONE',  ( 1.000000000000000000, 0.000000000000000000, 0.000000000000000000 ) ) ;
#208 = DIRECTION ( 'NONE',  ( -0.000000000000000000, -0.000000000000000000, -1.000000000000000000 ) ) ;
#209 = CARTESIAN_POINT ( 'NONE',  ( 9.849999999999999645, 0.000000000000000000, 0.000000000000000000 ) ) ;
#210 = SHAPE_DEFINITION_REPRESENTATION ( #50, #6 ) ;
#211 = CARTESIAN_POINT ( 'NONE',  ( 0.000000000000000000, 0.000000000000000000, 0.000000000000000000 ) ) ;
#212 = TOROIDAL_SURFACE ( 'NONE', #171, 9.849999999999999645, 0.1499999999999999944 ) ;
#213 = CARTESIAN_POINT ( 'NONE',  ( 10.00000000000000000, 0.000000000000000000, -2999.849999999999909 ) ) ;
#214 = EDGE_LOOP ( 'NONE', ( #158 ) ) ;
ENDSEC;
END-ISO-10303-21;
