ISO-10303-21;
HEADER;
FILE_DESCRIPTION (( 'STEP AP214' ),
    '1' );
FILE_NAME ('1147134.stp',
    '2022-02-10T10:42:53',
    ( '' ),
    ( '' ),
    'SwSTEP 2.0',
    'SolidWorks 2020',
    '' );
FILE_SCHEMA (( 'AUTOMOTIVE_DESIGN' ));
ENDSEC;

DATA;
#1 = DIRECTION ( 'NONE',  ( 0.9535826651341416937, 0.3011313679370973273, 0.000000000000000000 ) ) ;
#2 = EDGE_LOOP ( 'NONE', ( #44 ) ) ;
#3 = CARTESIAN_POINT ( 'NONE',  ( -8.000000000000000000, 2.168404344971008868E-16, -8.500000000000000000 ) ) ;
#4 = AXIS2_PLACEMENT_3D ( 'NONE', #69, #259, #11 ) ;
#5 = ORIENTED_EDGE ( 'NONE', *, *, #129, .T. ) ;
#6 = EDGE_CURVE ( 'NONE', #235, #177, #120, .T. ) ;
#7 = CARTESIAN_POINT ( 'NONE',  ( 0.000000000000000000, 0.000000000000000000, -4.499999999999999112 ) ) ;
#8 = FACE_OUTER_BOUND ( 'NONE', #61, .T. ) ;
#9 = ADVANCED_FACE ( 'NONE', ( #122, #179 ), #238, .F. ) ;
#10 = EDGE_CURVE ( 'NONE', #193, #20, #72, .T. ) ;
#11 = DIRECTION ( 'NONE',  ( 0.000000000000000000, -0.000000000000000000, -1.000000000000000000 ) ) ;
#12 = AXIS2_PLACEMENT_3D ( 'NONE', #251, #83, #256 ) ;
#13 = PLANE ( 'NONE',  #203 ) ;
#14 = CARTESIAN_POINT ( 'NONE',  ( 8.000000000000000000, 3.000000000000000000, 8.500000000000000000 ) ) ;
#15 = DIRECTION ( 'NONE',  ( 1.000000000000000000, 0.000000000000000000, 0.000000000000000000 ) ) ;
#16 = PRODUCT_DEFINITION ( 'UNKNOWN', '', #191, #26 ) ;
#17 = ORIENTED_EDGE ( 'NONE', *, *, #262, .F. ) ;
#18 = CARTESIAN_POINT ( 'NONE',  ( 8.000000000000000000, 2.168404344971008868E-16, 8.500000000000000000 ) ) ;
#19 = VERTEX_POINT ( 'NONE', #182 ) ;
#20 = VERTEX_POINT ( 'NONE', #208 ) ;
#21 = VECTOR ( 'NONE', #121, 1000.000000000000000 ) ;
#22 = DIRECTION ( 'NONE',  ( 0.000000000000000000, 0.000000000000000000, 1.000000000000000000 ) ) ;
#23 = DIRECTION ( 'NONE',  ( -1.000000000000000000, 0.000000000000000000, 0.000000000000000000 ) ) ;
#24 = PLANE ( 'NONE',  #346 ) ;
#25 = LINE ( 'NONE', #293, #350 ) ;
#26 = PRODUCT_DEFINITION_CONTEXT ( 'detailed design', #167, 'design' ) ;
#27 = ORIENTED_EDGE ( 'NONE', *, *, #158, .T. ) ;
#28 = EDGE_CURVE ( 'NONE', #93, #340, #25, .T. ) ;
#29 = VECTOR ( 'NONE', #95, 1000.000000000000114 ) ;
#30 = DIRECTION ( 'NONE',  ( -0.1736481776669314692, 0.000000000000000000, -0.9848077530122079093 ) ) ;
#31 = SURFACE_STYLE_FILL_AREA ( #107 ) ;
#32 = ORIENTED_EDGE ( 'NONE', *, *, #111, .F. ) ;
#33 = CARTESIAN_POINT ( 'NONE',  ( -8.000000000000000000, 2.168404344971008868E-16, 8.500000000000000000 ) ) ;
#34 = EDGE_LOOP ( 'NONE', ( #326, #166, #324, #279 ) ) ;
#35 = DIRECTION ( 'NONE',  ( 0.000000000000000000, 1.000000000000000000, 0.000000000000000000 ) ) ;
#36 = EDGE_LOOP ( 'NONE', ( #180, #265, #79, #344 ) ) ;
#37 = VECTOR ( 'NONE', #278, 1000.000000000000114 ) ;
#38 =( LENGTH_UNIT ( ) NAMED_UNIT ( * ) SI_UNIT ( .MILLI., .METRE. ) );
#39 = FACE_BOUND ( 'NONE', #2, .T. ) ;
#40 = VECTOR ( 'NONE', #258, 1000.000000000000000 ) ;
#41 = LINE ( 'NONE', #90, #355 ) ;
#42 = EDGE_CURVE ( 'NONE', #165, #270, #128, .T. ) ;
#43 = LINE ( 'NONE', #234, #21 ) ;
#44 = ORIENTED_EDGE ( 'NONE', *, *, #325, .T. ) ;
#45 = LINE ( 'NONE', #183, #29 ) ;
#46 = EDGE_LOOP ( 'NONE', ( #214, #161, #64, #285 ) ) ;
#47 = ORIENTED_EDGE ( 'NONE', *, *, #102, .T. ) ;
#48 = ORIENTED_EDGE ( 'NONE', *, *, #236, .T. ) ;
#49 = VECTOR ( 'NONE', #250, 999.9999999999998863 ) ;
#50 = ORIENTED_EDGE ( 'NONE', *, *, #119, .F. ) ;
#51 = DIRECTION ( 'NONE',  ( -1.000000000000000000, 0.000000000000000000, 0.000000000000000000 ) ) ;
#52 = EDGE_LOOP ( 'NONE', ( #337, #17, #110, #50 ) ) ;
#53 = EDGE_CURVE ( 'NONE', #19, #235, #321, .T. ) ;
#54 = UNCERTAINTY_MEASURE_WITH_UNIT (LENGTH_MEASURE( 1.000000000000000082E-05 ), #38, 'distance_accuracy_value', 'NONE');
#55 = CARTESIAN_POINT ( 'NONE',  ( 8.000000000000000000, 2.168404344971008868E-16, 8.500000000000000000 ) ) ;
#56 = PRODUCT_RELATED_PRODUCT_CATEGORY ( 'part', '', ( #228 ) ) ;
#57 = VECTOR ( 'NONE', #84, 1000.000000000000114 ) ;
#58 =( NAMED_UNIT ( * ) PLANE_ANGLE_UNIT ( ) SI_UNIT ( $, .RADIAN. ) );
#59 = ORIENTED_EDGE ( 'NONE', *, *, #172, .T. ) ;
#60 = SURFACE_STYLE_USAGE ( .BOTH. , #143 ) ;
#61 = EDGE_LOOP ( 'NONE', ( #224, #314, #331, #124 ) ) ;
#62 = FILL_AREA_STYLE ('',( #192 ) ) ;
#63 = CARTESIAN_POINT ( 'NONE',  ( 14.50244132795608465, 0.9465974753822894439, -8.500000000000000000 ) ) ;
#64 = ORIENTED_EDGE ( 'NONE', *, *, #139, .T. ) ;
#65 = DIRECTION ( 'NONE',  ( -0.9535826651341416937, 0.3011313679370973273, 0.000000000000000000 ) ) ;
#66 = EDGE_CURVE ( 'NONE', #149, #19, #131, .T. ) ;
#67 = EDGE_CURVE ( 'NONE', #19, #196, #247, .T. ) ;
#68 = AXIS2_PLACEMENT_3D ( 'NONE', #296, #127, #240 ) ;
#69 = CARTESIAN_POINT ( 'NONE',  ( 17.50000000000000000, 10.00000000000000000, 8.500000000000000000 ) ) ;
#70 = ORIENTED_EDGE ( 'NONE', *, *, #348, .T. ) ;
#71 = VECTOR ( 'NONE', #317, 1000.000000000000000 ) ;
#72 = LINE ( 'NONE', #154, #215 ) ;
#73 = EDGE_LOOP ( 'NONE', ( #210, #357, #184, #59 ) ) ;
#74 = DIRECTION ( 'NONE',  ( 0.9535826651341416937, -0.3011313679370973273, 0.000000000000000000 ) ) ;
#75 = DIRECTION ( 'NONE',  ( 0.000000000000000000, -1.000000000000000000, 0.000000000000000000 ) ) ;
#76 = CARTESIAN_POINT ( 'NONE',  ( 0.000000000000000000, 17.00000000000000000, 5.944591164848680122E-16 ) ) ;
#77 = APPLICATION_PROTOCOL_DEFINITION ( 'draft international standard', 'automotive_design', 1998, #167 ) ;
#78 = LINE ( 'NONE', #138, #57 ) ;
#79 = ORIENTED_EDGE ( 'NONE', *, *, #67, .T. ) ;
#80 = MECHANICAL_DESIGN_GEOMETRIC_PRESENTATION_REPRESENTATION (  '', ( #307 ), #260 ) ;
#81 = LINE ( 'NONE', #227, #40 ) ;
#82 = VERTEX_POINT ( 'NONE', #109 ) ;
#83 = DIRECTION ( 'NONE',  ( 1.000000000000000000, 0.000000000000000000, -0.000000000000000000 ) ) ;
#84 = DIRECTION ( 'NONE',  ( -0.1736481776669314692, -0.000000000000000000, -0.9848077530122079093 ) ) ;
#85 = ORIENTED_EDGE ( 'NONE', *, *, #111, .T. ) ;
#86 = FACE_OUTER_BOUND ( 'NONE', #46, .T. ) ;
#87 = CARTESIAN_POINT ( 'NONE',  ( -14.50244132795607754, 0.9465974753822919974, 8.500000000000000000 ) ) ;
#88 = ADVANCED_FACE ( 'NONE', ( #286 ), #311, .F. ) ;
#89 = CARTESIAN_POINT ( 'NONE',  ( 0.000000000000000000, 0.000000000000000000, -8.500000000000000000 ) ) ;
#90 = CARTESIAN_POINT ( 'NONE',  ( 17.50000000000000000, 10.00000000000000000, 8.500000000000000000 ) ) ;
#91 = PRODUCT_DEFINITION_SHAPE ( 'NONE', 'NONE',  #16 ) ;
#92 = LINE ( 'NONE', #213, #174 ) ;
#93 = VERTEX_POINT ( 'NONE', #187 ) ;
#94 = VECTOR ( 'NONE', #252, 1000.000000000000000 ) ;
#95 = DIRECTION ( 'NONE',  ( -0.1733876835661139204, 0.05475400533666755637, -0.9833304175541246472 ) ) ;
#96 = ORIENTED_EDGE ( 'NONE', *, *, #325, .F. ) ;
#97 = CARTESIAN_POINT ( 'NONE',  ( -17.50000949367015224, -2.998001100200042181E-06, -8.500053841278930378 ) ) ;
#98 = VERTEX_POINT ( 'NONE', #3 ) ;
#99 = LINE ( 'NONE', #97, #176 ) ;
#100 = EDGE_LOOP ( 'NONE', ( #358, #47, #70, #328, #308, #157, #27, #302 ) ) ;
#101 = PLANE ( 'NONE',  #189 ) ;
#102 = EDGE_CURVE ( 'NONE', #165, #263, #254, .T. ) ;
#103 = DIRECTION ( 'NONE',  ( 0.3011313679370973273, 0.9535826651341416937, -0.000000000000000000 ) ) ;
#104 = CARTESIAN_POINT ( 'NONE',  ( 0.000000000000000000, 10.00000000000000000, -4.499999999999999112 ) ) ;
#105 = DIRECTION ( 'NONE',  ( -0.000000000000000000, -0.000000000000000000, -1.000000000000000000 ) ) ;
#106 = EDGE_LOOP ( 'NONE', ( #48 ) ) ;
#107 = FILL_AREA_STYLE ('',( #220 ) ) ;
#108 = AXIS2_PLACEMENT_3D ( 'NONE', #18, #51, #22 ) ;
#109 = CARTESIAN_POINT ( 'NONE',  ( -8.000000000000000000, 3.000000000000000000, -8.500000000000000000 ) ) ;
#110 = ORIENTED_EDGE ( 'NONE', *, *, #147, .T. ) ;
#111 = EDGE_CURVE ( 'NONE', #98, #93, #81, .T. ) ;
#112 = CARTESIAN_POINT ( 'NONE',  ( 17.50000000000000000, 2.168404344971008868E-16, 8.500000000000000000 ) ) ;
#113 = MANIFOLD_SOLID_BREP ( 'Bohrung', #298 ) ;
#114 = AXIS2_PLACEMENT_3D ( 'NONE', #301, #329, #151 ) ;
#115 = DIRECTION ( 'NONE',  ( 1.000000000000000000, 0.000000000000000000, 0.000000000000000000 ) ) ;
#116 = CARTESIAN_POINT ( 'NONE',  ( 17.50000000000000000, 10.00000000000000178, 8.500000000000000000 ) ) ;
#117 = CARTESIAN_POINT ( 'NONE',  ( -8.000000000000000000, 3.000000000000000000, 8.500000000000000000 ) ) ;
#118 = CARTESIAN_POINT ( 'NONE',  ( -8.000000000000000000, 2.168404344971008868E-16, 8.500000000000000000 ) ) ;
#119 = EDGE_CURVE ( 'NONE', #263, #82, #135, .T. ) ;
#120 = LINE ( 'NONE', #159, #141 ) ;
#121 = DIRECTION ( 'NONE',  ( 1.000000000000000000, 0.000000000000000000, 0.000000000000000000 ) ) ;
#122 = FACE_OUTER_BOUND ( 'NONE', #106, .T. ) ;
#123 = VECTOR ( 'NONE', #257, 1000.000000000000000 ) ;
#124 = ORIENTED_EDGE ( 'NONE', *, *, #230, .T. ) ;
#125 = CARTESIAN_POINT ( 'NONE',  ( 8.000000000000000000, 3.000000000000000000, -8.500000000000000000 ) ) ;
#126 = CARTESIAN_POINT ( 'NONE',  ( 14.50244132795608287, -0.0009999999999992653654, -8.500000000000000000 ) ) ;
#127 = DIRECTION ( 'NONE',  ( 0.000000000000000000, -1.000000000000000000, 0.000000000000000000 ) ) ;
#128 = LINE ( 'NONE', #273, #232 ) ;
#129 = EDGE_CURVE ( 'NONE', #82, #98, #313, .T. ) ;
#130 = DIRECTION ( 'NONE',  ( 0.000000000000000000, 0.000000000000000000, 1.000000000000000000 ) ) ;
#131 = LINE ( 'NONE', #126, #162 ) ;
#132 = AXIS2_PLACEMENT_3D ( 'NONE', #229, #231, #288 ) ;
#133 = CARTESIAN_POINT ( 'NONE',  ( 8.000000000000000000, 3.000000000000000000, 8.500000000000000000 ) ) ;
#134 = EDGE_CURVE ( 'NONE', #169, #193, #281, .T. ) ;
#135 = LINE ( 'NONE', #142, #339 ) ;
#136 = ORIENTED_EDGE ( 'NONE', *, *, #28, .F. ) ;
#137 =( LENGTH_UNIT ( ) NAMED_UNIT ( * ) SI_UNIT ( .MILLI., .METRE. ) );
#138 = CARTESIAN_POINT ( 'NONE',  ( -17.50000000000000000, 9.999999999999998224, -8.500000000000000000 ) ) ;
#139 = EDGE_CURVE ( 'NONE', #270, #235, #78, .T. ) ;
#140 = EDGE_LOOP ( 'NONE', ( #96 ) ) ;
#141 = VECTOR ( 'NONE', #75, 1000.000000000000000 ) ;
#142 = CARTESIAN_POINT ( 'NONE',  ( -8.000000000000000000, 3.000000000000000000, 8.500000000000000000 ) ) ;
#143 = SURFACE_SIDE_STYLE ('',( #31 ) ) ;
#144 = VECTOR ( 'NONE', #23, 1000.000000000000000 ) ;
#145 = AXIS2_PLACEMENT_3D ( 'NONE', #133, #103, #65 ) ;
#146 = FACE_OUTER_BOUND ( 'NONE', #312, .T. ) ;
#147 = EDGE_CURVE ( 'NONE', #177, #82, #195, .T. ) ;
#148 = STYLED_ITEM ( 'NONE', ( #272 ), #274 ) ;
#149 = VERTEX_POINT ( 'NONE', #63 ) ;
#150 = DIRECTION ( 'NONE',  ( 0.000000000000000000, 1.000000000000000000, 0.000000000000000000 ) ) ;
#151 = DIRECTION ( 'NONE',  ( 0.000000000000000000, 0.000000000000000000, -1.000000000000000000 ) ) ;
#152 = ORIENTED_EDGE ( 'NONE', *, *, #6, .F. ) ;
#153 = DIRECTION ( 'NONE',  ( 0.000000000000000000, -0.000000000000000000, 1.000000000000000000 ) ) ;
#154 = CARTESIAN_POINT ( 'NONE',  ( 8.000000000000000000, 3.000000000000000000, 8.500000000000000000 ) ) ;
#155 = PRESENTATION_LAYER_ASSIGNMENT (  '', '', ( #307 ) ) ;
#156 = PRODUCT_CONTEXT ( 'NONE', #360, 'mechanical' ) ;
#157 = ORIENTED_EDGE ( 'NONE', *, *, #10, .T. ) ;
#158 = EDGE_CURVE ( 'NONE', #20, #196, #168, .T. ) ;
#159 = CARTESIAN_POINT ( 'NONE',  ( -17.50000000000000000, 10.00000000000000000, -8.500000000000000000 ) ) ;
#160 =( NAMED_UNIT ( * ) PLANE_ANGLE_UNIT ( ) SI_UNIT ( $, .RADIAN. ) );
#161 = ORIENTED_EDGE ( 'NONE', *, *, #42, .T. ) ;
#162 = VECTOR ( 'NONE', #244, 1000.000000000000000 ) ;
#163 = VECTOR ( 'NONE', #306, 1000.000000000000000 ) ;
#164 = ADVANCED_FACE ( 'NONE', ( #8 ), #305, .F. ) ;
#165 = VERTEX_POINT ( 'NONE', #87 ) ;
#166 = ORIENTED_EDGE ( 'NONE', *, *, #67, .F. ) ;
#167 = APPLICATION_CONTEXT ( 'automotive_design' ) ;
#168 = LINE ( 'NONE', #112, #123 ) ;
#169 = VERTEX_POINT ( 'NONE', #198 ) ;
#170 = AXIS2_PLACEMENT_3D ( 'NONE', #338, #334, #218 ) ;
#171 = LINE ( 'NONE', #55, #241 ) ;
#172 = EDGE_CURVE ( 'NONE', #169, #93, #171, .T. ) ;
#173 = ADVANCED_FACE ( 'NONE', ( #146 ), #13, .F. ) ;
#174 = VECTOR ( 'NONE', #74, 999.9999999999998863 ) ;
#175 = FACE_OUTER_BOUND ( 'NONE', #34, .T. ) ;
#176 = VECTOR ( 'NONE', #264, 1000.000000000000227 ) ;
#177 = VERTEX_POINT ( 'NONE', #349 ) ;
#178 = CARTESIAN_POINT ( 'NONE',  ( -17.50000000000000000, 10.00000000000000000, -8.500000000000000000 ) ) ;
#179 = FACE_OUTER_BOUND ( 'NONE', #140, .T. ) ;
#180 = ORIENTED_EDGE ( 'NONE', *, *, #289, .T. ) ;
#181 = PLANE ( 'NONE',  #322 ) ;
#182 = CARTESIAN_POINT ( 'NONE',  ( 14.50244132795608110, 10.00000000000000178, -8.500000000000000000 ) ) ;
#183 = CARTESIAN_POINT ( 'NONE',  ( 17.50000949367015224, -2.998001100545419866E-06, 8.500053841278930378 ) ) ;
#184 = ORIENTED_EDGE ( 'NONE', *, *, #134, .F. ) ;
#185 = UNCERTAINTY_MEASURE_WITH_UNIT (LENGTH_MEASURE( 1.000000000000000082E-05 ), #137, 'distance_accuracy_value', 'NONE');
#186 =( NAMED_UNIT ( * ) SI_UNIT ( $, .STERADIAN. ) SOLID_ANGLE_UNIT ( ) );
#187 = CARTESIAN_POINT ( 'NONE',  ( 8.000000000000000000, 2.168404344971008868E-16, -8.500000000000000000 ) ) ;
#188 = ORIENTED_EDGE ( 'NONE', *, *, #147, .F. ) ;
#189 = AXIS2_PLACEMENT_3D ( 'NONE', #197, #342, #30 ) ;
#190 = EDGE_CURVE ( 'NONE', #196, #270, #41, .T. ) ;
#191 = PRODUCT_DEFINITION_FORMATION_WITH_SPECIFIED_SOURCE ( 'ANY', '', #228, .NOT_KNOWN. ) ;
#192 = FILL_AREA_STYLE_COLOUR ( '', #300 ) ;
#193 = VERTEX_POINT ( 'NONE', #14 ) ;
#194 = VERTEX_POINT ( 'NONE', #104 ) ;
#195 = LINE ( 'NONE', #345, #49 ) ;
#196 = VERTEX_POINT ( 'NONE', #116 ) ;
#197 = CARTESIAN_POINT ( 'NONE',  ( -17.50000000000000000, -0.001000000000002734812, -8.500000000000000000 ) ) ;
#198 = CARTESIAN_POINT ( 'NONE',  ( 8.000000000000000000, 2.168404344971008868E-16, 8.500000000000000000 ) ) ;
#199 = FACE_OUTER_BOUND ( 'NONE', #36, .T. ) ;
#200 = CARTESIAN_POINT ( 'NONE',  ( 8.000000000000000000, 3.000000000000000000, 8.500000000000000000 ) ) ;
#201 = DIRECTION ( 'NONE',  ( -0.000000000000000000, 0.000000000000000000, 1.000000000000000000 ) ) ;
#202 = ADVANCED_FACE ( 'NONE', ( #199 ), #316, .F. ) ;
#203 = AXIS2_PLACEMENT_3D ( 'NONE', #89, #201, #115 ) ;
#204 = DIRECTION ( 'NONE',  ( -1.000000000000000000, 0.000000000000000000, 0.000000000000000000 ) ) ;
#205 = CARTESIAN_POINT ( 'NONE',  ( -8.000000000000000000, 2.168404344971008868E-16, 8.500000000000000000 ) ) ;
#206 = ORIENTED_EDGE ( 'NONE', *, *, #267, .F. ) ;
#207 = CIRCLE ( 'NONE', #114, 4.500000000000000000 ) ;
#208 = CARTESIAN_POINT ( 'NONE',  ( 17.50000000000000000, 2.168404344971008868E-16, 8.500000000000000000 ) ) ;
#209 = CARTESIAN_POINT ( 'NONE',  ( 17.50000000000000000, 10.00000000000000000, -8.500000000000000000 ) ) ;
#210 = ORIENTED_EDGE ( 'NONE', *, *, #28, .T. ) ;
#211 = FACE_OUTER_BOUND ( 'NONE', #73, .T. ) ;
#212 = ORIENTED_EDGE ( 'NONE', *, *, #53, .F. ) ;
#213 = CARTESIAN_POINT ( 'NONE',  ( 8.000000000000000000, 3.000000000000000000, -8.500000000000000000 ) ) ;
#214 = ORIENTED_EDGE ( 'NONE', *, *, #262, .T. ) ;
#215 = VECTOR ( 'NONE', #297, 999.9999999999998863 ) ;
#216 = CARTESIAN_POINT ( 'NONE',  ( 0.000000000000000000, 0.000000000000000000, 0.000000000000000000 ) ) ;
#217 = SURFACE_STYLE_USAGE ( .BOTH. , #335 ) ;
#218 = DIRECTION ( 'NONE',  ( -0.9535826651341416937, -0.3011313679370973273, 0.000000000000000000 ) ) ;
#219 = ORIENTED_EDGE ( 'NONE', *, *, #303, .T. ) ;
#220 = FILL_AREA_STYLE_COLOUR ( '', #318 ) ;
#221 = ORIENTED_EDGE ( 'NONE', *, *, #172, .F. ) ;
#222 = VECTOR ( 'NONE', #237, 1000.000000000000000 ) ;
#223 = PRESENTATION_STYLE_ASSIGNMENT (( #60 ) ) ;
#224 = ORIENTED_EDGE ( 'NONE', *, *, #267, .T. ) ;
#225 = ADVANCED_FACE ( 'NONE', ( #39, #175 ), #320, .F. ) ;
#226 = VERTEX_POINT ( 'NONE', #7 ) ;
#227 = CARTESIAN_POINT ( 'NONE',  ( -8.000000000000000000, 2.168404344971008868E-16, -8.500000000000000000 ) ) ;
#228 = PRODUCT ( '1147134', '1147134', '', ( #156 ) ) ;
#229 = CARTESIAN_POINT ( 'NONE',  ( 17.50000000000000000, -0.0009999999999992653654, 8.500000000000000000 ) ) ;
#230 = EDGE_CURVE ( 'NONE', #193, #340, #347, .T. ) ;
#231 = DIRECTION ( 'NONE',  ( -0.9848077530122079093, -9.762109305567119065E-17, 0.1736481776669313026 ) ) ;
#232 = VECTOR ( 'NONE', #242, 1000.000000000000000 ) ;
#233 = ADVANCED_FACE ( 'NONE', ( #291, #351 ), #24, .F. ) ;
#234 = CARTESIAN_POINT ( 'NONE',  ( -8.000000000000000000, 2.168404344971008868E-16, 8.500000000000000000 ) ) ;
#235 = VERTEX_POINT ( 'NONE', #178 ) ;
#236 = EDGE_CURVE ( 'NONE', #226, #226, #275, .T. ) ;
#237 = DIRECTION ( 'NONE',  ( -0.000000000000000000, -0.000000000000000000, -1.000000000000000000 ) ) ;
#238 = CYLINDRICAL_SURFACE ( 'NONE', #239, 4.500000000000000000 ) ;
#239 = AXIS2_PLACEMENT_3D ( 'NONE', #76, #271, #268 ) ;
#240 = DIRECTION ( 'NONE',  ( 0.000000000000000000, 0.000000000000000000, -1.000000000000000000 ) ) ;
#241 = VECTOR ( 'NONE', #105, 1000.000000000000000 ) ;
#242 = DIRECTION ( 'NONE',  ( -9.912705577010325549E-17, 1.000000000000000000, -0.000000000000000000 ) ) ;
#243 = FACE_OUTER_BOUND ( 'NONE', #100, .T. ) ;
#244 = DIRECTION ( 'NONE',  ( -9.912705577010325549E-17, 1.000000000000000000, -0.000000000000000000 ) ) ;
#245 = CARTESIAN_POINT ( 'NONE',  ( 0.000000000000000000, 0.000000000000000000, 8.500000000000000000 ) ) ;
#246 = ORIENTED_EDGE ( 'NONE', *, *, #236, .F. ) ;
#247 = LINE ( 'NONE', #363, #37 ) ;
#248 = DIRECTION ( 'NONE',  ( 1.000000000000000000, 0.000000000000000000, 0.000000000000000000 ) ) ;
#249 = CARTESIAN_POINT ( 'NONE',  ( -8.000000000000000000, 3.000000000000000000, 8.500000000000000000 ) ) ;
#250 = DIRECTION ( 'NONE',  ( 0.9535826651341416937, 0.3011313679370973273, 0.000000000000000000 ) ) ;
#251 = CARTESIAN_POINT ( 'NONE',  ( -8.000000000000000000, 3.000000000000000000, 8.500000000000000000 ) ) ;
#252 = DIRECTION ( 'NONE',  ( 0.000000000000000000, -1.000000000000000000, 0.000000000000000000 ) ) ;
#253 = EDGE_LOOP ( 'NONE', ( #85, #221, #356, #219 ) ) ;
#254 = LINE ( 'NONE', #315, #354 ) ;
#255 = EDGE_LOOP ( 'NONE', ( #5, #299, #327, #276 ) ) ;
#256 = DIRECTION ( 'NONE',  ( -0.000000000000000000, 0.000000000000000000, -1.000000000000000000 ) ) ;
#257 = DIRECTION ( 'NONE',  ( 0.000000000000000000, 1.000000000000000000, 0.000000000000000000 ) ) ;
#258 = DIRECTION ( 'NONE',  ( 1.000000000000000000, 0.000000000000000000, 0.000000000000000000 ) ) ;
#259 = DIRECTION ( 'NONE',  ( 0.000000000000000000, -1.000000000000000000, 0.000000000000000000 ) ) ;
#260 =( GEOMETRIC_REPRESENTATION_CONTEXT ( 3 ) GLOBAL_UNCERTAINTY_ASSIGNED_CONTEXT ( ( #54 ) ) GLOBAL_UNIT_ASSIGNED_CONTEXT ( ( #38, #160, #284 ) ) REPRESENTATION_CONTEXT ( 'NONE', 'WORKASPACE' ) );
#261 = DIRECTION ( 'NONE',  ( -0.000000000000000000, 0.000000000000000000, 1.000000000000000000 ) ) ;
#262 = EDGE_CURVE ( 'NONE', #177, #165, #99, .T. ) ;
#263 = VERTEX_POINT ( 'NONE', #117 ) ;
#264 = DIRECTION ( 'NONE',  ( 0.1733876835661140869, 0.05475400533666761188, 0.9833304175541246472 ) ) ;
#265 = ORIENTED_EDGE ( 'NONE', *, *, #66, .T. ) ;
#266 = PLANE ( 'NONE',  #108 ) ;
#267 = EDGE_CURVE ( 'NONE', #340, #149, #92, .T. ) ;
#268 = DIRECTION ( 'NONE',  ( 0.000000000000000000, 0.000000000000000000, -1.000000000000000000 ) ) ;
#269 = LINE ( 'NONE', #118, #222 ) ;
#270 = VERTEX_POINT ( 'NONE', #294 ) ;
#271 = DIRECTION ( 'NONE',  ( -0.000000000000000000, -1.000000000000000000, -0.000000000000000000 ) ) ;
#272 = PRESENTATION_STYLE_ASSIGNMENT (( #217 ) ) ;
#273 = CARTESIAN_POINT ( 'NONE',  ( -14.50244132795607577, -0.001000000000002734812, 8.500000000000000000 ) ) ;
#274 = ADVANCED_BREP_SHAPE_REPRESENTATION ( '1147134', ( #113, #290 ), #309 ) ;
#275 = CIRCLE ( 'NONE', #68, 4.500000000000000000 ) ;
#276 = ORIENTED_EDGE ( 'NONE', *, *, #119, .T. ) ;
#277 = LINE ( 'NONE', #249, #163 ) ;
#278 = DIRECTION ( 'NONE',  ( 0.1736481776669312749, -0.000000000000000000, 0.9848077530122079093 ) ) ;
#279 = ORIENTED_EDGE ( 'NONE', *, *, #139, .F. ) ;
#280 = PLANE ( 'NONE',  #12 ) ;
#281 = LINE ( 'NONE', #367, #292 ) ;
#282 = ORIENTED_EDGE ( 'NONE', *, *, #66, .F. ) ;
#283 =( LENGTH_UNIT ( ) NAMED_UNIT ( * ) SI_UNIT ( .MILLI., .METRE. ) );
#284 =( NAMED_UNIT ( * ) SI_UNIT ( $, .STERADIAN. ) SOLID_ANGLE_UNIT ( ) );
#285 = ORIENTED_EDGE ( 'NONE', *, *, #6, .T. ) ;
#286 = FACE_OUTER_BOUND ( 'NONE', #52, .T. ) ;
#287 = EDGE_CURVE ( 'NONE', #361, #169, #43, .T. ) ;
#288 = DIRECTION ( 'NONE',  ( 0.1736481776669313026, 0.000000000000000000, 0.9848077530122079093 ) ) ;
#289 = EDGE_CURVE ( 'NONE', #20, #149, #45, .T. ) ;
#290 = AXIS2_PLACEMENT_3D ( 'NONE', #216, #130, #248 ) ;
#291 = FACE_BOUND ( 'NONE', #295, .T. ) ;
#292 = VECTOR ( 'NONE', #35, 1000.000000000000000 ) ;
#293 = CARTESIAN_POINT ( 'NONE',  ( 8.000000000000000000, 2.168404344971008868E-16, -8.500000000000000000 ) ) ;
#294 = CARTESIAN_POINT ( 'NONE',  ( -14.50244132795607754, 9.999999999999998224, 8.500000000000000000 ) ) ;
#295 = EDGE_LOOP ( 'NONE', ( #246 ) ) ;
#296 = CARTESIAN_POINT ( 'NONE',  ( 0.000000000000000000, 0.000000000000000000, 5.944591164848680122E-16 ) ) ;
#297 = DIRECTION ( 'NONE',  ( 0.9535826651341416937, -0.3011313679370973273, 0.000000000000000000 ) ) ;
#298 = CLOSED_SHELL ( 'NONE', ( #359, #233, #330, #164, #225, #88, #341, #173, #366, #202, #9 ) ) ;
#299 = ORIENTED_EDGE ( 'NONE', *, *, #303, .F. ) ;
#300 = COLOUR_RGB ( '',0.7529411764705882248, 0.7529411764705882248, 0.7529411764705882248 ) ;
#301 = CARTESIAN_POINT ( 'NONE',  ( 0.000000000000000000, 10.00000000000000000, 5.944591164848680122E-16 ) ) ;
#302 = ORIENTED_EDGE ( 'NONE', *, *, #190, .T. ) ;
#303 = EDGE_CURVE ( 'NONE', #361, #98, #269, .T. ) ;
#304 =( NAMED_UNIT ( * ) SI_UNIT ( $, .STERADIAN. ) SOLID_ANGLE_UNIT ( ) );
#305 = PLANE ( 'NONE',  #145 ) ;
#306 = DIRECTION ( 'NONE',  ( 0.000000000000000000, -1.000000000000000000, 0.000000000000000000 ) ) ;
#307 = STYLED_ITEM ( 'NONE', ( #223 ), #113 ) ;
#308 = ORIENTED_EDGE ( 'NONE', *, *, #134, .T. ) ;
#309 =( GEOMETRIC_REPRESENTATION_CONTEXT ( 3 ) GLOBAL_UNCERTAINTY_ASSIGNED_CONTEXT ( ( #332 ) ) GLOBAL_UNIT_ASSIGNED_CONTEXT ( ( #283, #58, #304 ) ) REPRESENTATION_CONTEXT ( 'NONE', 'WORKASPACE' ) );
#310 = APPLICATION_PROTOCOL_DEFINITION ( 'draft international standard', 'automotive_design', 1998, #360 ) ;
#311 = PLANE ( 'NONE',  #170 ) ;
#312 = EDGE_LOOP ( 'NONE', ( #212, #282, #206, #136, #32, #353, #188, #152 ) ) ;
#313 = LINE ( 'NONE', #343, #94 ) ;
#314 = ORIENTED_EDGE ( 'NONE', *, *, #289, .F. ) ;
#315 = CARTESIAN_POINT ( 'NONE',  ( -17.50000000000000000, 2.168404344971008868E-16, 8.500000000000000000 ) ) ;
#316 = PLANE ( 'NONE',  #132 ) ;
#317 = DIRECTION ( 'NONE',  ( -0.000000000000000000, -0.000000000000000000, -1.000000000000000000 ) ) ;
#318 = COLOUR_RGB ( '',0.7529411764705882248, 0.7529411764705882248, 0.7529411764705882248 ) ;
#319 = PRESENTATION_LAYER_ASSIGNMENT (  '', '', ( #148 ) ) ;
#320 = PLANE ( 'NONE',  #4 ) ;
#321 = LINE ( 'NONE', #209, #144 ) ;
#322 = AXIS2_PLACEMENT_3D ( 'NONE', #245, #261, #15 ) ;
#323 =( GEOMETRIC_REPRESENTATION_CONTEXT ( 3 ) GLOBAL_UNCERTAINTY_ASSIGNED_CONTEXT ( ( #185 ) ) GLOBAL_UNIT_ASSIGNED_CONTEXT ( ( #137, #333, #186 ) ) REPRESENTATION_CONTEXT ( 'NONE', 'WORKASPACE' ) );
#324 = ORIENTED_EDGE ( 'NONE', *, *, #53, .T. ) ;
#325 = EDGE_CURVE ( 'NONE', #194, #194, #207, .T. ) ;
#326 = ORIENTED_EDGE ( 'NONE', *, *, #190, .F. ) ;
#327 = ORIENTED_EDGE ( 'NONE', *, *, #348, .F. ) ;
#328 = ORIENTED_EDGE ( 'NONE', *, *, #287, .T. ) ;
#329 = DIRECTION ( 'NONE',  ( 0.000000000000000000, -1.000000000000000000, 0.000000000000000000 ) ) ;
#330 = ADVANCED_FACE ( 'NONE', ( #211 ), #266, .F. ) ;
#331 = ORIENTED_EDGE ( 'NONE', *, *, #10, .F. ) ;
#332 = UNCERTAINTY_MEASURE_WITH_UNIT (LENGTH_MEASURE( 1.000000000000000082E-05 ), #283, 'distance_accuracy_value', 'NONE');
#333 =( NAMED_UNIT ( * ) PLANE_ANGLE_UNIT ( ) SI_UNIT ( $, .RADIAN. ) );
#334 = DIRECTION ( 'NONE',  ( -0.3011313679370973273, 0.9535826651341416937, 0.000000000000000000 ) ) ;
#335 = SURFACE_SIDE_STYLE ('',( #362 ) ) ;
#336 = DIRECTION ( 'NONE',  ( -0.000000000000000000, -0.000000000000000000, -1.000000000000000000 ) ) ;
#337 = ORIENTED_EDGE ( 'NONE', *, *, #102, .F. ) ;
#338 = CARTESIAN_POINT ( 'NONE',  ( -17.50000000000000000, 2.168404344971008868E-16, 8.500000000000000000 ) ) ;
#339 = VECTOR ( 'NONE', #336, 1000.000000000000000 ) ;
#340 = VERTEX_POINT ( 'NONE', #125 ) ;
#341 = ADVANCED_FACE ( 'NONE', ( #243 ), #181, .T. ) ;
#342 = DIRECTION ( 'NONE',  ( 0.9848077530122079093, 9.762109305567119065E-17, -0.1736481776669314692 ) ) ;
#343 = CARTESIAN_POINT ( 'NONE',  ( -8.000000000000000000, 3.000000000000000000, -8.500000000000000000 ) ) ;
#344 = ORIENTED_EDGE ( 'NONE', *, *, #158, .F. ) ;
#345 = CARTESIAN_POINT ( 'NONE',  ( -17.50000000000000000, 2.168404344971008868E-16, -8.500000000000000000 ) ) ;
#346 = AXIS2_PLACEMENT_3D ( 'NONE', #205, #352, #153 ) ;
#347 = LINE ( 'NONE', #200, #71 ) ;
#348 = EDGE_CURVE ( 'NONE', #263, #361, #277, .T. ) ;
#349 = CARTESIAN_POINT ( 'NONE',  ( -17.50000000000000000, 2.168404344971008868E-16, -8.500000000000000000 ) ) ;
#350 = VECTOR ( 'NONE', #150, 1000.000000000000000 ) ;
#351 = FACE_OUTER_BOUND ( 'NONE', #253, .T. ) ;
#352 = DIRECTION ( 'NONE',  ( 0.000000000000000000, 1.000000000000000000, 0.000000000000000000 ) ) ;
#353 = ORIENTED_EDGE ( 'NONE', *, *, #129, .F. ) ;
#354 = VECTOR ( 'NONE', #1, 999.9999999999998863 ) ;
#355 = VECTOR ( 'NONE', #204, 1000.000000000000000 ) ;
#356 = ORIENTED_EDGE ( 'NONE', *, *, #287, .F. ) ;
#357 = ORIENTED_EDGE ( 'NONE', *, *, #230, .F. ) ;
#358 = ORIENTED_EDGE ( 'NONE', *, *, #42, .F. ) ;
#359 = ADVANCED_FACE ( 'NONE', ( #365 ), #280, .F. ) ;
#360 = APPLICATION_CONTEXT ( 'automotive_design' ) ;
#361 = VERTEX_POINT ( 'NONE', #33 ) ;
#362 = SURFACE_STYLE_FILL_AREA ( #62 ) ;
#363 = CARTESIAN_POINT ( 'NONE',  ( 17.50000000000000000, 10.00000000000000178, 8.500000000000000000 ) ) ;
#364 = MECHANICAL_DESIGN_GEOMETRIC_PRESENTATION_REPRESENTATION (  '', ( #148 ), #323 ) ;
#365 = FACE_OUTER_BOUND ( 'NONE', #255, .T. ) ;
#366 = ADVANCED_FACE ( 'NONE', ( #86 ), #101, .F. ) ;
#367 = CARTESIAN_POINT ( 'NONE',  ( 8.000000000000000000, 2.168404344971008868E-16, 8.500000000000000000 ) ) ;
#368 = SHAPE_DEFINITION_REPRESENTATION ( #91, #274 ) ;
ENDSEC;
END-ISO-10303-21;
